  0
SECTION
  2
HEADER
  9
$ACADVER
  1
AC1015
  9
$ACADMAINTVER
 70
     6
  9
$DWGCODEPAGE
  3
ANSI_1254
  9
$INSBASE
 10
0.0
 20
0.0
 30
0.0
  9
$EXTMIN
 10
0.0
 20
0.0
 30
0.0
  9
$EXTMAX
 10
279.4
 20
215.9
 30
0.0
  9
$LIMMIN
 10
0.0
 20
0.0
  9
$LIMMAX
 10
279.4
 20
215.9
  9
$ORTHOMODE
 70
     0
  9
$REGENMODE
 70
     1
  9
$FILLMODE
 70
     1
  9
$QTEXTMODE
 70
     0
  9
$MIRRTEXT
 70
     1
  9
$LTSCALE
 40
1.0
  9
$ATTMODE
 70
     1
  9
$TEXTSIZE
 40
3.5
  9
$TRACEWID
 40
1.0
  9
$TEXTSTYLE
  7
Standard
  9
$CLAYER
  8
0
  9
$CELTYPE
  6
ByLayer
  9
$CECOLOR
 62
   256
  9
$CELTSCALE
 40
1.0
  9
$DISPSILH
 70
     0
  9
$DIMSCALE
 40
1.0
  9
$DIMASZ
 40
3.5
  9
$DIMEXO
 40
1.0
  9
$DIMDLI
 40
3.75
  9
$DIMRND
 40
0.0
  9
$DIMDLE
 40
0.0
  9
$DIMEXE
 40
1.0
  9
$DIMTP
 40
0.0
  9
$DIMTM
 40
0.0
  9
$DIMTXT
 40
3.5
  9
$DIMCEN
 40
2.5
  9
$DIMTSZ
 40
0.0
  9
$DIMTOL
 70
     0
  9
$DIMLIM
 70
     0
  9
$DIMTIH
 70
     1
  9
$DIMTOH
 70
     1
  9
$DIMSE1
 70
     0
  9
$DIMSE2
 70
     0
  9
$DIMTAD
 70
     1
  9
$DIMZIN
 70
     0
  9
$DIMBLK
  1

  9
$DIMASO
 70
     1
  9
$DIMSHO
 70
     1
  9
$DIMPOST
  1

  9
$DIMAPOST
  1

  9
$DIMALT
 70
     0
  9
$DIMALTD
 70
     3
  9
$DIMALTF
 40
0.0393700787
  9
$DIMLFAC
 40
1.0
  9
$DIMTOFL
 70
     1
  9
$DIMTVP
 40
0.0
  9
$DIMTIX
 70
     0
  9
$DIMSOXD
 70
     0
  9
$DIMSAH
 70
     0
  9
$DIMBLK1
  1

  9
$DIMBLK2
  1

  9
$DIMSTYLE
  2
ISO-25
  9
$DIMCLRD
 70
     0
  9
$DIMCLRE
 70
     0
  9
$DIMCLRT
 70
     0
  9
$DIMTFAC
 40
1.0
  9
$DIMGAP
 40
1.524
  9
$DIMJUST
 70
     0
  9
$DIMSD1
 70
     0
  9
$DIMSD2
 70
     0
  9
$DIMTOLJ
 70
     0
  9
$DIMTZIN
 70
     0
  9
$DIMALTZ
 70
     0
  9
$DIMALTTZ
 70
     0
  9
$DIMUPT
 70
     0
  9
$DIMDEC
 70
     2
  9
$DIMTDEC
 70
     2
  9
$DIMALTU
 70
     2
  9
$DIMALTTD
 70
     3
  9
$DIMTXSTY
  7
Standard
  9
$DIMAUNIT
 70
     0
  9
$DIMADEC
 70
     2
  9
$DIMALTRND
 40
0.0
  9
$DIMAZIN
 70
     0
  9
$DIMDSEP
 70
    44
  9
$DIMATFIT
 70
     3
  9
$DIMFRAC
 70
     0
  9
$DIMLDRBLK
  1

  9
$DIMLUNIT
 70
     2
  9
$DIMLWD
 70
    -2
  9
$DIMLWE
 70
    -2
  9
$DIMTMOVE
 70
     0
  9
$LUNITS
 70
     2
  9
$LUPREC
 70
     2
  9
$SKETCHINC
 40
1.0
  9
$FILLETRAD
 40
10.0
  9
$AUNITS
 70
     0
  9
$AUPREC
 70
     2
  9
$MENU
  1
.
  9
$ELEVATION
 40
0.0
  9
$PELEVATION
 40
0.0
  9
$THICKNESS
 40
0.0
  9
$LIMCHECK
 70
     0
  9
$CHAMFERA
 40
0.0
  9
$CHAMFERB
 40
0.0
  9
$CHAMFERC
 40
0.0
  9
$CHAMFERD
 40
0.0
  9
$SKPOLY
 70
     0
  9
$TDCREATE
 40
2458985.711389317
  9
$TDUCREATE
 40
2458985.586389317
  9
$TDUPDATE
 40
2458985.711389584
  9
$TDUUPDATE
 40
2458985.586389584
  9
$TDINDWG
 40
0.0000000116
  9
$TDUSRTIMER
 40
0.0000000116
  9
$USRTIMER
 70
     1
  9
$ANGBASE
 50
0.0
  9
$ANGDIR
 70
     0
  9
$PDMODE
 70
     0
  9
$PDSIZE
 40
-1.0
  9
$PLINEWID
 40
0.0
  9
$SPLFRAME
 70
     0
  9
$SPLINETYPE
 70
     6
  9
$SPLINESEGS
 70
     8
  9
$HANDSEED
  5
10B
  9
$SURFTAB1
 70
     6
  9
$SURFTAB2
 70
     6
  9
$SURFTYPE
 70
     6
  9
$SURFU
 70
     6
  9
$SURFV
 70
     6
  9
$UCSBASE
  2

  9
$UCSNAME
  2

  9
$UCSORG
 10
0.0
 20
0.0
 30
0.0
  9
$UCSXDIR
 10
1.0
 20
0.0
 30
0.0
  9
$UCSYDIR
 10
0.0
 20
1.0
 30
0.0
  9
$UCSORTHOREF
  2

  9
$UCSORTHOVIEW
 70
     0
  9
$UCSORGTOP
 10
0.0
 20
0.0
 30
0.0
  9
$UCSORGBOTTOM
 10
0.0
 20
0.0
 30
0.0
  9
$UCSORGLEFT
 10
0.0
 20
0.0
 30
0.0
  9
$UCSORGRIGHT
 10
0.0
 20
0.0
 30
0.0
  9
$UCSORGFRONT
 10
0.0
 20
0.0
 30
0.0
  9
$UCSORGBACK
 10
0.0
 20
0.0
 30
0.0
  9
$PUCSBASE
  2

  9
$PUCSNAME
  2

  9
$PUCSORG
 10
0.0
 20
0.0
 30
0.0
  9
$PUCSXDIR
 10
1.0
 20
0.0
 30
0.0
  9
$PUCSYDIR
 10
0.0
 20
1.0
 30
0.0
  9
$PUCSORTHOREF
  2

  9
$PUCSORTHOVIEW
 70
     0
  9
$PUCSORGTOP
 10
0.0
 20
0.0
 30
0.0
  9
$PUCSORGBOTTOM
 10
0.0
 20
0.0
 30
0.0
  9
$PUCSORGLEFT
 10
0.0
 20
0.0
 30
0.0
  9
$PUCSORGRIGHT
 10
0.0
 20
0.0
 30
0.0
  9
$PUCSORGFRONT
 10
0.0
 20
0.0
 30
0.0
  9
$PUCSORGBACK
 10
0.0
 20
0.0
 30
0.0
  9
$USERI1
 70
     0
  9
$USERI2
 70
     0
  9
$USERI3
 70
     0
  9
$USERI4
 70
     0
  9
$USERI5
 70
     0
  9
$USERR1
 40
0.0
  9
$USERR2
 40
0.0
  9
$USERR3
 40
0.0
  9
$USERR4
 40
0.0
  9
$USERR5
 40
0.0
  9
$WORLDVIEW
 70
     1
  9
$SHADEDGE
 70
     3
  9
$SHADEDIF
 70
    70
  9
$TILEMODE
 70
     1
  9
$MAXACTVP
 70
    64
  9
$PINSBASE
 10
0.0
 20
0.0
 30
0.0
  9
$PLIMCHECK
 70
     0
  9
$PEXTMIN
 10
1.0000000000E+20
 20
1.0000000000E+20
 30
1.0000000000E+20
  9
$PEXTMAX
 10
-1.0000000000E+20
 20
-1.0000000000E+20
 30
-1.0000000000E+20
  9
$PLIMMIN
 10
0.0
 20
0.0
  9
$PLIMMAX
 10
420.0
 20
297.0
  9
$UNITMODE
 70
     0
  9
$VISRETAIN
 70
     1
  9
$PLINEGEN
 70
     0
  9
$PSLTSCALE
 70
     1
  9
$TREEDEPTH
 70
  3020
  9
$CMLSTYLE
  2
Standard
  9
$CMLJUST
 70
     0
  9
$CMLSCALE
 40
20.0
  9
$PROXYGRAPHICS
 70
     1
  9
$MEASUREMENT
 70
     1
  9
$CELWEIGHT
370
    -1
  9
$ENDCAPS
280
     0
  9
$JOINSTYLE
280
     0
  9
$LWDISPLAY
290
     1
  9
$INSUNITS
 70
     4
  9
$HYPERLINKBASE
  1

  9
$STYLESHEET
  1

  9
$XEDIT
290
     1
  9
$CEPSNTYPE
380
     0
  9
$PSTYLEMODE
290
     1
  9
$FINGERPRINTGUID
  2
{d6df37ee-eb70-43b5-8620-82b75a72324b}
  9
$VERSIONGUID
  2
{FAEB1C32-E019-11D5-929B-00C0DF256EC4}
  9
$EXTNAMES
290
     1
  9
$PSVPSCALE
 40
0.0
  9
$OLESTARTUP
290
     0
  0
ENDSEC
  0
SECTION
  2
CLASSES
  0
CLASS
  1
ACDBDICTIONARYWDFLT
  2
AcDbDictionaryWithDefault
  3
ObjectDBX Classes
 90
        0
280
     0
281
     0
  0
CLASS
  1
VISUALSTYLE
  2
AcDbVisualStyle
  3
ObjectDBX Classes
 90
     4095
280
     0
281
     0
  0
CLASS
  1
MATERIAL
  2
AcDbMaterial
  3
ObjectDBX Classes
 90
     1153
280
     0
281
     0
  0
CLASS
  1
SCALE
  2
AcDbScale
  3
ObjectDBX Classes
 90
     1153
280
     0
281
     0
  0
CLASS
  1
TABLESTYLE
  2
AcDbTableStyle
  3
ObjectDBX Classes
 90
     4095
280
     0
281
     0
  0
CLASS
  1
MLEADERSTYLE
  2
AcDbMLeaderStyle
  3
ACDB_MLEADERSTYLE_CLASS
 90
     4095
280
     0
281
     0
  0
CLASS
  1
SUN
  2
AcDbSun
  3
SCENEOE
 90
     1153
280
     0
281
     0
  0
CLASS
  1
ACDBPLACEHOLDER
  2
AcDbPlaceHolder
  3
ObjectDBX Classes
 90
        0
280
     0
281
     0
  0
CLASS
  1
LAYOUT
  2
AcDbLayout
  3
ObjectDBX Classes
 90
        0
280
     0
281
     0
  0
ENDSEC
  0
SECTION
  2
TABLES
  0
TABLE
  2
VPORT
  5
8
330
0
100
AcDbSymbolTable
 70
     1
  0
VPORT
  5
29
330
8
100
AcDbSymbolTableRecord
100
AcDbViewportTableRecord
  2
*Active
 70
     0
 10
0.0
 20
0.0
 11
1.0
 21
1.0
 12
139.7
 22
107.95
 13
0.0
 23
0.0
 14
10.0
 24
10.0
 15
10.0
 25
10.0
 16
0.0
 26
0.0
 36
1.0
 17
0.0
 27
0.0
 37
0.0
 40
215.9
 41
1.2941176471
 42
50.0
 43
0.0
 44
0.0
 50
0.0
 51
0.0
 71
     0
 72
  2000
 73
     1
 74
     3
 75
     0
 76
     0
 77
     0
 78
     0
281
     0
 65
     1
110
0.0
120
0.0
130
0.0
111
1.0
121
0.0
131
0.0
112
0.0
122
1.0
132
0.0
 79
     0
146
0.0
  0
ENDTAB
  0
TABLE
  2
LTYPE
  5
5
330
0
100
AcDbSymbolTable
 70
     6
  0
LTYPE
  5
14
330
5
100
AcDbSymbolTableRecord
100
AcDbLinetypeTableRecord
  2
ByBlock
 70
     0
  3

 72
    65
 73
     0
 40
0.0
  0
LTYPE
  5
15
330
5
100
AcDbSymbolTableRecord
100
AcDbLinetypeTableRecord
  2
ByLayer
 70
     0
  3

 72
    65
 73
     0
 40
0.0
  0
LTYPE
  5
16
330
5
100
AcDbSymbolTableRecord
100
AcDbLinetypeTableRecord
  2
Continuous
 70
     0
  3
Solid line
 72
    65
 73
     0
 40
0.0
  0
LTYPE
  5
6E
330
5
100
AcDbSymbolTableRecord
100
AcDbLinetypeTableRecord
  2
HIDDEN
 70
     0
  3
Hidden __ __ __ __ __ __ __ __ __ __ __ __ __ __
 72
    65
 73
     2
 40
1.905
 49
1.27
 74
     0
 49
-0.635
 74
     0
  0
LTYPE
  5
6F
330
5
100
AcDbSymbolTableRecord
100
AcDbLinetypeTableRecord
  2
PHANTOM
 70
     0
  3
Phantom ______  __  __  ______  __  __  ______
 72
    65
 73
     6
 40
12.7
 49
6.35
 74
     0
 49
-1.27
 74
     0
 49
1.27
 74
     0
 49
-1.27
 74
     0
 49
1.27
 74
     0
 49
-1.27
 74
     0
  0
LTYPE
  5
70
330
5
100
AcDbSymbolTableRecord
100
AcDbLinetypeTableRecord
  2
CENTER
 70
     0
  3
Center ____ _ ____ _ ____ _ ____ _ ____ _ ____
 72
    65
 73
     4
 40
10.16
 49
6.35
 74
     0
 49
-1.27
 74
     0
 49
1.27
 74
     0
 49
-1.27
 74
     0
  0
LTYPE
  5
71
330
5
100
AcDbSymbolTableRecord
100
AcDbLinetypeTableRecord
  2
CENTERX2
 70
     0
  3
Center (2x) ________  __  ________  __  _____
 72
    65
 73
     4
 40
20.32
 49
12.7
 74
     0
 49
-2.54
 74
     0
 49
2.54
 74
     0
 49
-2.54
 74
     0
  0
LTYPE
  5
72
330
5
100
AcDbSymbolTableRecord
100
AcDbLinetypeTableRecord
  2
DOT2
 70
     0
  3
Dot (.5x) ........................................
 72
    65
 73
     2
 40
0.635
 49
0.0
 74
     0
 49
-0.635
 74
     0
  0
ENDTAB
  0
TABLE
  2
LAYER
  5
2
330
0
100
AcDbSymbolTable
 70
    17
  0
LAYER
  5
10
330
2
100
AcDbSymbolTableRecord
100
AcDbLayerTableRecord
  2
0
 70
     0
 62
     7
  6
Continuous
370
    -3
390
F
  0
LAYER
  5
73
330
2
100
AcDbSymbolTableRecord
100
AcDbLayerTableRecord
  2
FORMAT
 70
     0
 62
     7
  6
Continuous
370
    -3
390
F
  0
LAYER
  5
74
330
2
100
AcDbSymbolTableRecord
100
AcDbLayerTableRecord
  2
YARDIMCI_GEOMETRI
 70
     0
 62
    -6
  6
Continuous
290
     0
370
    -3
390
F
  0
LAYER
  5
75
330
2
100
AcDbSymbolTableRecord
100
AcDbLayerTableRecord
  2
SAYFA_CERCEVESI
 70
     0
 62
     7
  6
Continuous
370
    25
390
F
  0
LAYER
  5
76
330
2
100
AcDbSymbolTableRecord
100
AcDbLayerTableRecord
  2
ANTET
 70
     0
 62
     7
  6
Continuous
370
    -3
390
F
  0
LAYER
  5
77
330
2
100
AcDbSymbolTableRecord
100
AcDbLayerTableRecord
  2
OLCU
 70
     0
 62
   150
  6
Continuous
370
    -3
390
F
  0
LAYER
  5
78
330
2
100
AcDbSymbolTableRecord
100
AcDbLayerTableRecord
  2
METIN
 70
     0
 62
    96
  6
Continuous
370
    -3
390
F
  0
LAYER
  5
79
330
2
100
AcDbSymbolTableRecord
100
AcDbLayerTableRecord
  2
BALON
 70
     0
 62
     5
  6
Continuous
370
    -3
390
F
  0
LAYER
  5
7A
330
2
100
AcDbSymbolTableRecord
100
AcDbLayerTableRecord
  2
VURGU
 70
     0
 62
     7
  6
Continuous
370
    -3
390
F
  0
LAYER
  5
7B
330
2
100
AcDbSymbolTableRecord
100
AcDbLayerTableRecord
  2
SILIK
 70
     0
 62
     7
  6
Continuous
370
    -3
390
F
  0
LAYER
  5
7C
330
2
100
AcDbSymbolTableRecord
100
AcDbLayerTableRecord
  2
MODEL
 70
     0
 62
     7
  6
Continuous
370
    -3
390
F
  0
LAYER
  5
7D
330
2
100
AcDbSymbolTableRecord
100
AcDbLayerTableRecord
  2
DETAYLANDıRMA
 70
     0
 62
   190
  6
Continuous
370
    -3
390
F
  0
LAYER
  5
7E
330
2
100
AcDbSymbolTableRecord
100
AcDbLayerTableRecord
  2
TOLERANS
 70
     0
 62
   230
  6
Continuous
370
    -3
390
F
  0
LAYER
  5
7F
330
2
100
AcDbSymbolTableRecord
100
AcDbLayerTableRecord
  2
MERKEZ_CIZGILERI
 70
     0
 62
    30
  6
Continuous
370
    -3
390
F
  0
LAYER
  5
80
330
2
100
AcDbSymbolTableRecord
100
AcDbLayerTableRecord
  2
KESIT-DETAY_CIZGILERI
 70
     0
 62
     7
  6
Continuous
370
    -3
390
F
  0
LAYER
  5
81
330
2
100
AcDbSymbolTableRecord
100
AcDbLayerTableRecord
  2
\U+041E\U+0421\U+0415\U+0412\U+042B\U+0415
 70
     0
 62
     7
  6
Continuous
370
    -3
390
F
  0
LAYER
  5
82
330
2
100
AcDbSymbolTableRecord
100
AcDbLayerTableRecord
  2
\U+0412\U+041E\U+0414\U+042F\U+041D\U+042B\U+0415_\U+0417\U+041D\U+0410\U+041A\U+0418
 70
     0
 62
    11
  6
Continuous
370
    -3
390
F
  0
ENDTAB
  0
TABLE
  2
STYLE
  5
3
330
0
100
AcDbSymbolTable
 70
     1
  0
STYLE
  5
11
330
3
100
AcDbSymbolTableRecord
100
AcDbTextStyleTableRecord
  2
Standard
 70
     0
 40
0.0
 41
1.0
 50
0.0
 71
     0
 42
3.5
  3
txt
  4

  0
ENDTAB
  0
TABLE
  2
VIEW
  5
6
330
0
100
AcDbSymbolTable
 70
     0
  0
ENDTAB
  0
TABLE
  2
UCS
  5
7
330
0
100
AcDbSymbolTable
 70
     0
  0
ENDTAB
  0
TABLE
  2
APPID
  5
9
330
0
100
AcDbSymbolTable
 70
     1
  0
APPID
  5
12
330
9
100
AcDbSymbolTableRecord
100
AcDbRegAppTableRecord
  2
ACAD
 70
     0
  0
ENDTAB
  0
TABLE
  2
DIMSTYLE
  5
A
330
0
100
AcDbSymbolTable
 70
     1
100
AcDbDimStyleTable
  0
DIMSTYLE
105
27
330
A
100
AcDbSymbolTableRecord
100
AcDbDimStyleTableRecord
  2
ISO-25
 70
     0
 41
2.5
 42
0.625
 43
3.75
 44
1.25
 73
     0
 74
     0
 77
     1
 78
     8
140
2.5
141
2.5
143
0.0393700787
147
0.625
171
     3
172
     1
178
     0
271
     2
272
     2
274
     3
278
    44
283
     0
284
     8
340
11
  0
ENDTAB
  0
TABLE
  2
BLOCK_RECORD
  5
1
330
0
100
AcDbSymbolTable
 70
     2
  0
BLOCK_RECORD
  5
1F
330
1
100
AcDbSymbolTableRecord
100
AcDbBlockTableRecord
  2
*Model_Space
340
22
  0
BLOCK_RECORD
  5
1B
330
1
100
AcDbSymbolTableRecord
100
AcDbBlockTableRecord
  2
*Paper_Space
340
1E
  0
BLOCK_RECORD
  5
23
330
1
100
AcDbSymbolTableRecord
100
AcDbBlockTableRecord
  2
*Paper_Space0
340
26
  0
BLOCK_RECORD
  5
88
330
1
100
AcDbSymbolTableRecord
100
AcDbBlockTableRecord
  2
SW_CENTERMARKSYMBOL_0
340
0
102
{BLKREFS
331
93
102
}
  0
ENDTAB
  0
ENDSEC
  0
SECTION
  2
BLOCKS
  0
BLOCK
  5
20
330
1F
100
AcDbEntity
  8
0
100
AcDbBlockBegin
  2
*Model_Space
 70
     0
 10
0.0
 20
0.0
 30
0.0
  3
*Model_Space
  1

  0
ENDBLK
  5
21
330
1F
100
AcDbEntity
  8
0
100
AcDbBlockEnd
  0
BLOCK
  5
1C
330
1B
100
AcDbEntity
 67
     1
  8
0
100
AcDbBlockBegin
  2
*Paper_Space
 70
     0
 10
0.0
 20
0.0
 30
0.0
  3
*Paper_Space
  1

  0
ENDBLK
  5
1D
330
1B
100
AcDbEntity
 67
     1
  8
0
100
AcDbBlockEnd
  0
BLOCK
  5
24
330
23
100
AcDbEntity
  8
0
100
AcDbBlockBegin
  2
*Paper_Space0
 70
     0
 10
0.0
 20
0.0
 30
0.0
  3
*Paper_Space0
  1

  0
ENDBLK
  5
25
330
23
100
AcDbEntity
  8
0
100
AcDbBlockEnd
  0
BLOCK
  5
89
330
88
100
AcDbEntity
  8
0
100
AcDbBlockBegin
  2
SW_CENTERMARKSYMBOL_0
 70
     0
 10
0.0
 20
0.0
 30
0.0
  3
SW_CENTERMARKSYMBOL_0
  1

  0
LINE
  5
8B
330
88
100
AcDbEntity
  8
FORMAT
 62
     0
100
AcDbLine
 10
0.0
 20
0.0
 30
0.0
 11
0.0
 21
2.5
 31
0.0
  0
LINE
  5
8C
330
88
100
AcDbEntity
  8
FORMAT
 62
     0
100
AcDbLine
 10
0.0
 20
0.0
 30
0.0
 11
-2.5
 21
0.0
 31
0.0
  0
LINE
  5
8D
330
88
100
AcDbEntity
  8
FORMAT
 62
     0
100
AcDbLine
 10
0.0
 20
0.0
 30
0.0
 11
0.0
 21
-2.5
 31
0.0
  0
LINE
  5
8E
330
88
100
AcDbEntity
  8
FORMAT
 62
     0
100
AcDbLine
 10
0.0
 20
0.0
 30
0.0
 11
2.5
 21
0.0
 31
0.0
  0
LINE
  5
8F
330
88
100
AcDbEntity
  8
FORMAT
 62
     0
100
AcDbLine
 10
0.0
 20
5.0
 30
0.0
 11
0.0
 21
227.5
 31
0.0
  0
LINE
  5
90
330
88
100
AcDbEntity
  8
FORMAT
 62
     0
100
AcDbLine
 10
-5.0
 20
0.0
 30
0.0
 11
-227.9581903656
 21
0.0
 31
0.0
  0
LINE
  5
91
330
88
100
AcDbEntity
  8
FORMAT
 62
     0
100
AcDbLine
 10
0.0
 20
-5.0
 30
0.0
 11
0.0
 21
-227.5
 31
0.0
  0
LINE
  5
92
330
88
100
AcDbEntity
  8
FORMAT
 62
     0
100
AcDbLine
 10
5.0
 20
0.0
 30
0.0
 11
227.5
 21
0.0
 31
0.0
  0
ENDBLK
  5
8A
330
88
100
AcDbEntity
  8
0
100
AcDbBlockEnd
  0
ENDSEC
  0
SECTION
  2
ENTITIES
  0
CIRCLE
  5
83
330
1F
100
AcDbEntity
  8
0
  6
Continuous
 62
     7
370
    25
100
AcDbCircle
 10
138.6355637034
 20
111.402298074
 30
0.0
 40
157.5
  0
CIRCLE
  5
84
330
1F
100
AcDbEntity
  8
0
  6
Continuous
 62
     7
370
    25
100
AcDbCircle
 10
138.6355637034
 20
111.402298074
 30
0.0
 40
138.8
  0
CIRCLE
  5
85
330
1F
100
AcDbEntity
  8
0
  6
Continuous
 62
     7
370
    25
100
AcDbCircle
 10
138.6355637034
 20
111.402298074
 30
0.0
 40
177.5
  0
CIRCLE
  5
86
330
1F
100
AcDbEntity
  8
0
  6
Continuous
 62
     7
370
    25
100
AcDbCircle
 10
138.6355637034
 20
111.402298074
 30
0.0
 40
200.0
  0
CIRCLE
  5
87
330
1F
100
AcDbEntity
  8
0
  6
Continuous
 62
     7
370
    25
100
AcDbCircle
 10
138.6355637034
 20
111.402298074
 30
0.0
 40
225.0
  0
INSERT
  5
93
330
1F
100
AcDbEntity
  8
FORMAT
 62
     7
100
AcDbBlockReference
  2
SW_CENTERMARKSYMBOL_0
 10
138.6355637034
 20
111.402298074
 30
0.0
  0
LINE
  5
94
330
1F
100
AcDbEntity
  8
0
  6
Continuous
 62
     7
370
    25
100
AcDbLine
 10
639.333946242
 20
-113.597701926
 30
0.0
 11
691.333946242
 21
-113.597701926
 31
0.0
  0
LINE
  5
95
330
1F
100
AcDbEntity
  8
0
  6
Continuous
 62
     7
370
    25
100
AcDbLine
 10
691.333946242
 20
336.402298074
 30
0.0
 11
639.333946242
 21
336.402298074
 31
0.0
  0
LINE
  5
96
330
1F
100
AcDbEntity
  8
0
  6
Continuous
 62
     7
370
    25
100
AcDbLine
 10
691.333946242
 20
-113.597701926
 30
0.0
 11
698.7413536494
 21
-88.597701926
 31
0.0
  0
LINE
  5
97
330
1F
100
AcDbEntity
  8
0
  6
Continuous
 62
     7
370
    25
100
AcDbLine
 10
698.7413536494
 20
311.402298074
 30
0.0
 11
691.333946242
 21
336.402298074
 31
0.0
  0
LINE
  5
98
330
1F
100
AcDbEntity
  8
0
  6
Continuous
 62
     7
370
    25
100
AcDbLine
 10
698.7413536494
 20
-88.597701926
 30
0.0
 11
734.7413536494
 21
-88.597701926
 31
0.0
  0
LINE
  5
99
330
1F
100
AcDbEntity
  8
0
  6
Continuous
 62
     7
370
    25
100
AcDbLine
 10
734.7413536494
 20
311.402298074
 30
0.0
 11
698.7413536494
 21
311.402298074
 31
0.0
  0
LINE
  5
9A
330
1F
100
AcDbEntity
  8
0
  6
Continuous
 62
     7
370
    25
100
AcDbLine
 10
734.7413536494
 20
-88.597701926
 30
0.0
 11
741.4080203161
 21
-66.097701926
 31
0.0
  0
LINE
  5
9B
330
1F
100
AcDbEntity
  8
0
  6
Continuous
 62
     7
370
    25
100
AcDbLine
 10
741.4080203161
 20
288.902298074
 30
0.0
 11
734.7413536494
 21
311.402298074
 31
0.0
  0
LINE
  5
9C
330
1F
100
AcDbEntity
  8
0
  6
Continuous
 62
     7
370
    25
100
AcDbLine
 10
741.4080203161
 20
-66.097701926
 30
0.0
 11
777.4080203161
 21
-66.097701926
 31
0.0
  0
LINE
  5
9D
330
1F
100
AcDbEntity
  8
0
  6
Continuous
 62
     7
370
    25
100
AcDbLine
 10
777.4080203161
 20
288.902298074
 30
0.0
 11
741.4080203161
 21
288.902298074
 31
0.0
  0
LINE
  5
9E
330
1F
100
AcDbEntity
  8
0
  6
Continuous
 62
     7
370
    25
100
AcDbLine
 10
777.4080203161
 20
-66.097701926
 30
0.0
 11
783.333946242
 21
-46.097701926
 31
0.0
  0
LINE
  5
9F
330
1F
100
AcDbEntity
  8
0
  6
Continuous
 62
     7
370
    25
100
AcDbLine
 10
783.333946242
 20
268.902298074
 30
0.0
 11
777.4080203161
 21
288.902298074
 31
0.0
  0
LINE
  5
A0
330
1F
100
AcDbEntity
  8
0
  6
Continuous
 62
     7
370
    25
100
AcDbLine
 10
783.333946242
 20
-46.097701926
 30
0.0
 11
819.333946242
 21
-46.097701926
 31
0.0
  0
LINE
  5
A1
330
1F
100
AcDbEntity
  8
0
  6
Continuous
 62
     7
370
    25
100
AcDbLine
 10
819.333946242
 20
268.902298074
 30
0.0
 11
783.333946242
 21
268.902298074
 31
0.0
  0
LINE
  5
A2
330
1F
100
AcDbEntity
  8
0
  6
Continuous
 62
     7
370
    25
100
AcDbLine
 10
691.333946242
 20
111.402298074
 30
0.0
 11
691.333946242
 21
336.402298074
 31
0.0
  0
LINE
  5
A3
330
1F
100
AcDbEntity
  8
0
  6
Continuous
 62
     7
370
    25
100
AcDbLine
 10
691.333946242
 20
-113.597701926
 30
0.0
 11
691.333946242
 21
111.402298074
 31
0.0
  0
LINE
  5
A4
330
1F
100
AcDbEntity
  8
0
  6
Continuous
 62
     7
370
    25
100
AcDbLine
 10
639.333946242
 20
111.402298074
 30
0.0
 11
639.333946242
 21
336.402298074
 31
0.0
  0
LINE
  5
A5
330
1F
100
AcDbEntity
  8
0
  6
Continuous
 62
     7
370
    25
100
AcDbLine
 10
639.333946242
 20
-113.597701926
 30
0.0
 11
639.333946242
 21
111.402298074
 31
0.0
  0
LINE
  5
A6
330
1F
100
AcDbEntity
  8
0
  6
Continuous
 62
     7
370
    25
100
AcDbLine
 10
698.7413536494
 20
111.402298074
 30
0.0
 11
698.7413536494
 21
311.402298074
 31
0.0
  0
LINE
  5
A7
330
1F
100
AcDbEntity
  8
0
  6
Continuous
 62
     7
370
    25
100
AcDbLine
 10
698.7413536494
 20
-88.597701926
 30
0.0
 11
698.7413536494
 21
111.402298074
 31
0.0
  0
LINE
  5
A8
330
1F
100
AcDbEntity
  8
0
  6
Continuous
 62
     7
370
    25
100
AcDbLine
 10
734.7413536494
 20
111.402298074
 30
0.0
 11
734.7413536494
 21
311.402298074
 31
0.0
  0
LINE
  5
A9
330
1F
100
AcDbEntity
  8
0
  6
Continuous
 62
     7
370
    25
100
AcDbLine
 10
734.7413536494
 20
-88.597701926
 30
0.0
 11
734.7413536494
 21
111.402298074
 31
0.0
  0
LINE
  5
AA
330
1F
100
AcDbEntity
  8
0
  6
Continuous
 62
     7
370
    25
100
AcDbLine
 10
741.4080203161
 20
111.402298074
 30
0.0
 11
741.4080203161
 21
288.902298074
 31
0.0
  0
LINE
  5
AB
330
1F
100
AcDbEntity
  8
0
  6
Continuous
 62
     7
370
    25
100
AcDbLine
 10
741.4080203161
 20
-66.097701926
 30
0.0
 11
741.4080203161
 21
111.402298074
 31
0.0
  0
LINE
  5
AC
330
1F
100
AcDbEntity
  8
0
  6
Continuous
 62
     7
370
    25
100
AcDbLine
 10
777.4080203161
 20
111.402298074
 30
0.0
 11
777.4080203161
 21
288.902298074
 31
0.0
  0
LINE
  5
AD
330
1F
100
AcDbEntity
  8
0
  6
Continuous
 62
     7
370
    25
100
AcDbLine
 10
777.4080203161
 20
-66.097701926
 30
0.0
 11
777.4080203161
 21
111.402298074
 31
0.0
  0
LINE
  5
AE
330
1F
100
AcDbEntity
  8
0
  6
Continuous
 62
     7
370
    25
100
AcDbLine
 10
783.333946242
 20
111.402298074
 30
0.0
 11
783.333946242
 21
268.902298074
 31
0.0
  0
LINE
  5
AF
330
1F
100
AcDbEntity
  8
0
  6
Continuous
 62
     7
370
    25
100
AcDbLine
 10
783.333946242
 20
-46.097701926
 30
0.0
 11
783.333946242
 21
111.402298074
 31
0.0
  0
LINE
  5
B0
330
1F
100
AcDbEntity
  8
0
  6
Continuous
 62
     7
370
    25
100
AcDbLine
 10
819.333946242
 20
111.402298074
 30
0.0
 11
819.333946242
 21
268.902298074
 31
0.0
  0
LINE
  5
B1
330
1F
100
AcDbEntity
  8
0
  6
Continuous
 62
     7
370
    25
100
AcDbLine
 10
819.333946242
 20
-46.097701926
 30
0.0
 11
819.333946242
 21
111.402298074
 31
0.0
  0
LINE
  5
B2
330
1F
100
AcDbEntity
  8
0
  6
Continuous
 62
     7
370
    25
100
AcDbLine
 10
-358.4724823012
 20
336.402298074
 30
0.0
 11
-410.4724823012
 21
336.402298074
 31
0.0
  0
LINE
  5
B3
330
1F
100
AcDbEntity
  8
0
  6
Continuous
 62
     7
370
    25
100
AcDbLine
 10
-410.4724823012
 20
-113.597701926
 30
0.0
 11
-358.4724823012
 21
-113.597701926
 31
0.0
  0
LINE
  5
B4
330
1F
100
AcDbEntity
  8
0
  6
Continuous
 62
     7
370
    25
100
AcDbLine
 10
-410.4724823012
 20
336.402298074
 30
0.0
 11
-417.8798897086
 21
311.402298074
 31
0.0
  0
LINE
  5
B5
330
1F
100
AcDbEntity
  8
0
  6
Continuous
 62
     7
370
    25
100
AcDbLine
 10
-417.8798897086
 20
-88.597701926
 30
0.0
 11
-410.4724823012
 21
-113.597701926
 31
0.0
  0
LINE
  5
B6
330
1F
100
AcDbEntity
  8
0
  6
Continuous
 62
     7
370
    25
100
AcDbLine
 10
-417.8798897086
 20
311.402298074
 30
0.0
 11
-453.8798897086
 21
311.402298074
 31
0.0
  0
LINE
  5
B7
330
1F
100
AcDbEntity
  8
0
  6
Continuous
 62
     7
370
    25
100
AcDbLine
 10
-453.8798897086
 20
-88.597701926
 30
0.0
 11
-417.8798897086
 21
-88.597701926
 31
0.0
  0
LINE
  5
B8
330
1F
100
AcDbEntity
  8
0
  6
Continuous
 62
     7
370
    25
100
AcDbLine
 10
-453.8798897086
 20
311.402298074
 30
0.0
 11
-460.5465563752
 21
288.902298074
 31
0.0
  0
LINE
  5
B9
330
1F
100
AcDbEntity
  8
0
  6
Continuous
 62
     7
370
    25
100
AcDbLine
 10
-460.5465563752
 20
-66.097701926
 30
0.0
 11
-453.8798897086
 21
-88.597701926
 31
0.0
  0
LINE
  5
BA
330
1F
100
AcDbEntity
  8
0
  6
Continuous
 62
     7
370
    25
100
AcDbLine
 10
-460.5465563752
 20
288.902298074
 30
0.0
 11
-496.5465563752
 21
288.902298074
 31
0.0
  0
LINE
  5
BB
330
1F
100
AcDbEntity
  8
0
  6
Continuous
 62
     7
370
    25
100
AcDbLine
 10
-496.5465563752
 20
-66.097701926
 30
0.0
 11
-460.5465563752
 21
-66.097701926
 31
0.0
  0
LINE
  5
BC
330
1F
100
AcDbEntity
  8
0
  6
Continuous
 62
     7
370
    25
100
AcDbLine
 10
-496.5465563752
 20
288.902298074
 30
0.0
 11
-502.4724823012
 21
268.902298074
 31
0.0
  0
LINE
  5
BD
330
1F
100
AcDbEntity
  8
0
  6
Continuous
 62
     7
370
    25
100
AcDbLine
 10
-502.4724823012
 20
-46.097701926
 30
0.0
 11
-496.5465563752
 21
-66.097701926
 31
0.0
  0
LINE
  5
BE
330
1F
100
AcDbEntity
  8
0
  6
Continuous
 62
     7
370
    25
100
AcDbLine
 10
-502.4724823012
 20
268.902298074
 30
0.0
 11
-538.4724823012
 21
268.902298074
 31
0.0
  0
LINE
  5
BF
330
1F
100
AcDbEntity
  8
0
  6
Continuous
 62
     7
370
    25
100
AcDbLine
 10
-538.4724823012
 20
-46.097701926
 30
0.0
 11
-502.4724823012
 21
-46.097701926
 31
0.0
  0
LINE
  5
C0
330
1F
100
AcDbEntity
  8
0
  6
Continuous
 62
     7
370
    25
100
AcDbLine
 10
-410.4724823012
 20
336.402298074
 30
0.0
 11
-410.4724823012
 21
-113.597701926
 31
0.0
  0
LINE
  5
C1
330
1F
100
AcDbEntity
  8
0
  6
Continuous
 62
     7
370
    25
100
AcDbLine
 10
-358.4724823012
 20
336.402298074
 30
0.0
 11
-358.4724823012
 21
-113.597701926
 31
0.0
  0
LINE
  5
C2
330
1F
100
AcDbEntity
  8
0
  6
Continuous
 62
     7
370
    25
100
AcDbLine
 10
-417.8798897086
 20
311.402298074
 30
0.0
 11
-417.8798897086
 21
-88.597701926
 31
0.0
  0
LINE
  5
C3
330
1F
100
AcDbEntity
  8
0
  6
Continuous
 62
     7
370
    25
100
AcDbLine
 10
-453.8798897086
 20
311.402298074
 30
0.0
 11
-453.8798897086
 21
-88.597701926
 31
0.0
  0
LINE
  5
C4
330
1F
100
AcDbEntity
  8
0
  6
Continuous
 62
     7
370
    25
100
AcDbLine
 10
-460.5465563752
 20
288.902298074
 30
0.0
 11
-460.5465563752
 21
-66.097701926
 31
0.0
  0
LINE
  5
C5
330
1F
100
AcDbEntity
  8
0
  6
Continuous
 62
     7
370
    25
100
AcDbLine
 10
-496.5465563752
 20
288.902298074
 30
0.0
 11
-496.5465563752
 21
-66.097701926
 31
0.0
  0
LINE
  5
C6
330
1F
100
AcDbEntity
  8
0
  6
Continuous
 62
     7
370
    25
100
AcDbLine
 10
-502.4724823012
 20
268.902298074
 30
0.0
 11
-502.4724823012
 21
-46.097701926
 31
0.0
  0
LINE
  5
C7
330
1F
100
AcDbEntity
  8
0
  6
Continuous
 62
     7
370
    25
100
AcDbLine
 10
-538.4724823012
 20
268.902298074
 30
0.0
 11
-538.4724823012
 21
-46.097701926
 31
0.0
  0
LINE
  5
C8
330
1F
100
AcDbEntity
  8
0
  6
Continuous
 62
     7
370
    25
100
AcDbLine
 10
363.6355637034
 20
572.9728536778
 30
0.0
 11
363.6355637034
 21
624.9728536778
 31
0.0
  0
LINE
  5
C9
330
1F
100
AcDbEntity
  8
0
  6
Continuous
 62
     7
370
    25
100
AcDbLine
 10
-86.3644362966
 20
624.9728536778
 30
0.0
 11
-86.3644362966
 21
572.9728536778
 31
0.0
  0
LINE
  5
CA
330
1F
100
AcDbEntity
  8
0
  6
Continuous
 62
     7
370
    25
100
AcDbLine
 10
363.6355637034
 20
624.9728536778
 30
0.0
 11
338.6355637034
 21
632.3802610852
 31
0.0
  0
LINE
  5
CB
330
1F
100
AcDbEntity
  8
0
  6
Continuous
 62
     7
370
    25
100
AcDbLine
 10
-61.3644362966
 20
632.3802610852
 30
0.0
 11
-86.3644362966
 21
624.9728536778
 31
0.0
  0
LINE
  5
CC
330
1F
100
AcDbEntity
  8
0
  6
Continuous
 62
     7
370
    25
100
AcDbLine
 10
338.6355637034
 20
632.3802610852
 30
0.0
 11
338.6355637034
 21
668.3802610852
 31
0.0
  0
LINE
  5
CD
330
1F
100
AcDbEntity
  8
0
  6
Continuous
 62
     7
370
    25
100
AcDbLine
 10
-61.3644362966
 20
668.3802610852
 30
0.0
 11
-61.3644362966
 21
632.3802610852
 31
0.0
  0
LINE
  5
CE
330
1F
100
AcDbEntity
  8
0
  6
Continuous
 62
     7
370
    25
100
AcDbLine
 10
338.6355637034
 20
668.3802610852
 30
0.0
 11
316.1355637034
 21
675.0469277519
 31
0.0
  0
LINE
  5
CF
330
1F
100
AcDbEntity
  8
0
  6
Continuous
 62
     7
370
    25
100
AcDbLine
 10
-38.8644362966
 20
675.0469277519
 30
0.0
 11
-61.3644362966
 21
668.3802610852
 31
0.0
  0
LINE
  5
D0
330
1F
100
AcDbEntity
  8
0
  6
Continuous
 62
     7
370
    25
100
AcDbLine
 10
316.1355637034
 20
675.0469277519
 30
0.0
 11
316.1355637034
 21
711.0469277519
 31
0.0
  0
LINE
  5
D1
330
1F
100
AcDbEntity
  8
0
  6
Continuous
 62
     7
370
    25
100
AcDbLine
 10
-38.8644362966
 20
711.0469277519
 30
0.0
 11
-38.8644362966
 21
675.0469277519
 31
0.0
  0
LINE
  5
D2
330
1F
100
AcDbEntity
  8
0
  6
Continuous
 62
     7
370
    25
100
AcDbLine
 10
316.1355637034
 20
711.0469277519
 30
0.0
 11
296.1355637034
 21
716.9728536778
 31
0.0
  0
LINE
  5
D3
330
1F
100
AcDbEntity
  8
0
  6
Continuous
 62
     7
370
    25
100
AcDbLine
 10
-18.8644362966
 20
716.9728536778
 30
0.0
 11
-38.8644362966
 21
711.0469277519
 31
0.0
  0
LINE
  5
D4
330
1F
100
AcDbEntity
  8
0
  6
Continuous
 62
     7
370
    25
100
AcDbLine
 10
296.1355637034
 20
716.9728536778
 30
0.0
 11
296.1355637034
 21
752.9728536778
 31
0.0
  0
LINE
  5
D5
330
1F
100
AcDbEntity
  8
0
  6
Continuous
 62
     7
370
    25
100
AcDbLine
 10
-18.8644362966
 20
752.9728536778
 30
0.0
 11
-18.8644362966
 21
716.9728536778
 31
0.0
  0
LINE
  5
D6
330
1F
100
AcDbEntity
  8
0
  6
Continuous
 62
     7
370
    25
100
AcDbLine
 10
363.6355637034
 20
624.9728536778
 30
0.0
 11
-86.3644362966
 21
624.9728536778
 31
0.0
  0
LINE
  5
D7
330
1F
100
AcDbEntity
  8
0
  6
Continuous
 62
     7
370
    25
100
AcDbLine
 10
363.6355637034
 20
572.9728536778
 30
0.0
 11
-86.3644362966
 21
572.9728536778
 31
0.0
  0
LINE
  5
D8
330
1F
100
AcDbEntity
  8
0
  6
Continuous
 62
     7
370
    25
100
AcDbLine
 10
338.6355637034
 20
632.3802610852
 30
0.0
 11
-61.3644362966
 21
632.3802610852
 31
0.0
  0
LINE
  5
D9
330
1F
100
AcDbEntity
  8
0
  6
Continuous
 62
     7
370
    25
100
AcDbLine
 10
338.6355637034
 20
668.3802610852
 30
0.0
 11
-61.3644362966
 21
668.3802610852
 31
0.0
  0
LINE
  5
DA
330
1F
100
AcDbEntity
  8
0
  6
Continuous
 62
     7
370
    25
100
AcDbLine
 10
316.1355637034
 20
675.0469277519
 30
0.0
 11
-38.8644362966
 21
675.0469277519
 31
0.0
  0
LINE
  5
DB
330
1F
100
AcDbEntity
  8
0
  6
Continuous
 62
     7
370
    25
100
AcDbLine
 10
316.1355637034
 20
711.0469277519
 30
0.0
 11
-38.8644362966
 21
711.0469277519
 31
0.0
  0
LINE
  5
DC
330
1F
100
AcDbEntity
  8
0
  6
Continuous
 62
     7
370
    25
100
AcDbLine
 10
296.1355637034
 20
716.9728536778
 30
0.0
 11
-18.8644362966
 21
716.9728536778
 31
0.0
  0
LINE
  5
DD
330
1F
100
AcDbEntity
  8
0
  6
Continuous
 62
     7
370
    25
100
AcDbLine
 10
296.1355637034
 20
752.9728536778
 30
0.0
 11
-18.8644362966
 21
752.9728536778
 31
0.0
  0
LINE
  5
DE
330
1F
100
AcDbEntity
  8
0
  6
Continuous
 62
     7
370
    25
100
AcDbLine
 10
796.4981921962
 20
-228.1629906371
 30
0.0
 11
759.7286395745
 21
-206.9363797297
 31
0.0
  0
LINE
  5
DF
330
1F
100
AcDbEntity
  8
0
  6
Continuous
 62
     7
370
    25
100
AcDbLine
 10
534.7469247314
 20
-596.658367801
 30
0.0
 11
571.5164773531
 21
-617.8849787084
 31
0.0
  0
LINE
  5
E0
330
1F
100
AcDbEntity
  8
0
  6
Continuous
 62
     7
370
    25
100
AcDbLine
 10
741.9918274078
 20
-225.5638675417
 30
0.0
 11
716.5359832851
 21
-210.8685215289
 31
0.0
  0
LINE
  5
E1
330
1F
100
AcDbEntity
  8
0
  6
Continuous
 62
     7
370
    25
100
AcDbLine
 10
516.5522367578
 20
-557.2880664812
 30
0.0
 11
542.0080808806
 21
-571.983412494
 31
0.0
  0
LINE
  5
E2
330
1F
100
AcDbEntity
  8
0
  6
Continuous
 62
     7
370
    25
100
AcDbLine
 10
660.9275584789
 20
-227.8399047965
 30
0.0
 11
635.4717143562
 21
-213.1445587837
 31
0.0
  0
LINE
  5
E3
330
1F
100
AcDbEntity
  8
0
  6
Continuous
 62
     7
370
    25
100
AcDbLine
 10
477.984513966
 20
-485.9499504336
 30
0.0
 11
503.4403580887
 21
-500.6452964464
 31
0.0
  0
LINE
  5
E4
330
1F
100
AcDbEntity
  8
0
  6
Continuous
 62
     7
370
    25
100
AcDbLine
 10
700.572852335
 20
-227.6332605597
 30
0.0
 11
675.1170082123
 21
-212.9379145469
 31
0.0
  0
LINE
  5
E5
330
1F
100
AcDbEntity
  8
0
  6
Continuous
 62
     7
370
    25
100
AcDbLine
 10
497.6314331694
 20
-520.385260692
 30
0.0
 11
523.0872772921
 21
-535.0806067049
 31
0.0
  0
LWPOLYLINE
  5
E6
330
1F
100
AcDbEntity
  8
0
  6
Continuous
 62
     7
370
    25
100
AcDbPolyline
 90
       77
 70
   128
 43
0.0
 10
741.9918274078
 20
-225.5638675417
 10
745.0916860885
 20
-227.4679200189
 10
749.0552215794
 20
-230.2630315165
 10
752.8309457535
 20
-233.3537678816
 10
756.4122347077
 20
-236.7347069126
 10
759.7928056442
 20
-240.3999172933
 10
762.966727893
 20
-244.3429689996
 10
765.9284333158
 20
-248.5569445786
 10
768.6727260749
 20
-253.0344512855
 10
771.1947917484
 20
-257.7676340519
 10
773.490205776
 20
-262.7481892669
 10
775.5549412216
 20
-267.9673793443
 10
777.3853758376
 20
-273.4160480511
 10
778.9782984196
 20
-279.0846365711
 10
780.3309144402
 20
-284.9632002738
 10
781.4408509513
 20
-291.0414261608
 10
782.306160747
 20
-297.3086509585
 10
782.92532578
 20
-303.7538798251
 10
783.2972598244
 20
-310.365805639
 10
783.4213103815
 20
-317.1328288356
 10
783.2972598244
 20
-324.0430777567
 10
782.92532578
 20
-331.0844294777
 10
782.306160747
 20
-338.2445310748
 10
781.4408509513
 20
-345.510821297
 10
780.3309144402
 20
-352.8705526021
 10
778.9782984196
 20
-360.3108135205
 10
777.3853758376
 20
-367.8185513063
 10
775.5549412216
 20
-375.3805948363
 10
773.490205776
 20
-382.9836777166
 10
771.1947917484
 20
-390.6144615562
 10
768.6727260749
 20
-398.2595593673
 10
765.9284333158
 20
-405.9055590506
 10
762.966727893
 20
-413.5390469245
 10
759.7928056442
 20
-421.1466312573
 10
756.4122347077
 20
-428.7149657611
 10
752.8309457535
 20
-436.2307730054
 10
749.0552215794
 20
-443.6808677105
 10
745.0916860885
 20
-451.0521798785
 10
740.9472926691
 20
-458.3317777233
 10
736.6293119953
 20
-465.5068903566
 10
732.1453192726
 20
-472.5649301927
 10
727.5031809479
 20
-479.4935150313
 10
722.7110409091
 20
-486.2804897804
 10
717.7773061984
 20
-492.91394778
 10
712.7106322628
 20
-499.3822516907
 10
707.5199077702
 20
-505.6740539094
 10
702.2142390151
 20
-511.7783164772
 10
696.8029339433
 20
-517.6843304432
 10
691.2954858228
 20
-523.3817346521
 10
685.701556589
 20
-528.8605339209
 10
680.0309598947
 20
-534.111116574
 10
674.2936438932
 20
-539.1242713052
 10
668.4996737864
 20
-543.8912033377
 10
662.6592141667
 20
-548.4035498528
 10
656.7825111849
 20
-552.6533946615
 10
650.8798745748
 20
-556.6332820918
 10
644.961659567
 20
-560.3362300689
 10
639.0382487214
 20
-563.7557423637
 10
633.1200337135
 20
-566.8858199897
 10
627.2173971034
 20
-569.7209717271
 10
621.3406941216
 20
-572.2562237564
 10
615.5002345019
 20
-574.487128384
 10
609.7062643951
 20
-576.4097718452
 10
603.9689483937
 20
-578.02078117
 10
598.2983516993
 20
-579.3173301007
 10
592.7044224655
 20
-580.2971440498
 10
587.196974345
 20
-580.9585040907
 10
581.7856692733
 20
-581.3002499732
 10
576.4800005181
 20
-581.3217821589
 10
571.2892760255
 20
-581.0230628729
 10
566.2226020899
 20
-580.4046161706
 10
561.2888673792
 20
-579.4675270174
 10
556.4967273404
 20
-578.2134393862
 10
551.8545890157
 20
-576.6445533729
 10
547.370596293
 20
-574.7636213367
 10
543.0526156192
 20
-572.5739430714
 10
542.0080808806
 20
-571.983412494
  0
LWPOLYLINE
  5
E7
330
1F
100
AcDbEntity
  8
0
  6
Continuous
 62
     7
370
    25
100
AcDbPolyline
 90
      109
 70
   128
 43
0.0
 10
684.6266895505
 20
-201.636769623
 10
686.1338756718
 20
-201.1964838408
 10
692.1982399873
 20
-199.6091479605
 10
698.1924038851
 20
-198.3375049936
 10
704.1070081896
 20
-197.3835404597
 10
709.9328179486
 20
-196.7487438611
 10
715.6607368514
 20
-196.4341063573
 10
721.2818214328
 20
-196.4401192175
 10
726.7872950364
 20
-196.7667730533
 10
732.1685615188
 20
-197.4135578336
 10
737.417218671
 20
-198.3794636806
 10
742.5250713381
 20
-199.662982447
 10
747.4841442144
 20
-201.2621100707
 10
752.2866942963
 20
-203.1743497036
 10
756.925222972
 20
-205.3967156107
 10
761.3924877294
 20
-207.9257378313
 10
765.6815134651
 20
-210.7574675975
 10
769.7856033745
 20
-213.8874834994
 10
773.6983494084
 20
-217.3108983886
 10
777.4136422782
 20
-221.0223670093
 10
780.9256809953
 20
-225.0160943438
 10
784.228981928
 20
-229.2858446609
 10
787.3183873641
 20
-233.8249512523
 10
790.1890735638
 20
-238.6263268419
 10
792.8365582912
 20
-243.6824746518
 10
795.2567078134
 20
-248.9855001072
 10
797.445743354
 20
-254.5271231636
 10
799.4002469939
 20
-260.2986912341
 10
801.1171670078
 20
-266.2911927006
 10
802.5938226288
 20
-272.4952709832
 10
803.8279082345
 20
-278.9012391503
 10
804.8174969466
 20
-285.4990950429
 10
805.56104364
 20
-292.2785368923
 10
806.0573873546
 20
-299.2289794048
 10
806.3057531088
 20
-306.3395702895
 10
806.3057531088
 20
-313.5992072028
 10
806.0573873546
 20
-320.9965550834
 10
805.56104364
 20
-328.5200638508
 10
804.8174969466
 20
-336.1579864391
 10
803.8279082345
 20
-343.8983971388
 10
802.5938226288
 20
-351.7292102175
 10
801.1171670078
 20
-359.6381987901
 10
799.4002469939
 20
-367.6130139098
 10
797.445743354
 20
-375.6412038496
 10
795.2567078134
 20
-383.7102335437
 10
792.8365582912
 20
-391.8075041602
 10
790.1890735638
 20
-399.9203727723
 10
787.3183873641
 20
-408.0361720985
 10
784.228981928
 20
-416.1422302818
 10
780.9256809953
 20
-424.2258906745
 10
777.4136422782
 20
-432.2745316004
 10
773.6983494084
 20
-440.2755860622
 10
769.7856033745
 20
-448.2165613632
 10
765.6815134651
 20
-456.085058613
 10
761.3924877294
 20
-463.8687920872
 10
756.9252229719
 20
-471.5556084101
 10
752.2866942963
 20
-479.1335055304
 10
747.4841442144
 20
-486.5906514613
 10
742.5250713381
 20
-493.9154027546
 10
737.417218671
 20
-501.0963226807
 10
732.1685615188
 20
-508.1221990856
 10
726.7872950364
 20
-514.9820618973
 10
721.2818214328
 20
-521.6652002542
 10
715.6607368514
 20
-528.1611792293
 10
709.9328179486
 20
-534.4598561225
 10
704.1070081896
 20
-540.5513962974
 10
698.1924038851
 20
-546.4262885372
 10
692.1982399873
 20
-552.0753598951
 10
686.1338756718
 20
-557.4897900167
 10
680.0087797235
 20
-562.6611249122
 10
673.8325157526
 20
-567.5812901559
 10
667.6147272622
 20
-572.2426034939
 10
661.3651225909
 20
-576.6377868388
 10
655.0934597546
 20
-580.7599776334
 10
648.8095312101
 20
-584.6027395663
 10
642.5231485661
 20
-588.1600726207
 10
636.2441272628
 20
-591.4264224435
 10
629.9822712466
 20
-594.396689017
 10
623.7473576623
 20
-597.0662346228
 10
617.5491215874
 20
-599.4308910821
 10
611.3972408317
 20
-601.4869662646
 10
605.3013208267
 20
-603.231249853
 10
599.2708796279
 20
-604.6610183556
 10
593.3153330534
 20
-605.7740393585
 10
587.4439799822
 20
-606.5685750115
 10
581.6659878352
 20
-607.0433847416
 10
575.9903782611
 20
-607.1977271898
 10
570.4260130506
 20
-607.0313613685
 10
564.9815802995
 20
-606.5445470384
 10
559.6655808431
 20
-605.7380443021
 10
554.4863149837
 20
-604.613112418
 10
549.45186953
 20
-603.1715078337
 10
544.5701051709
 20
-601.4154814436
 10
539.8486442021
 20
-599.3477750744
 10
535.2948586244
 20
-596.9716172043
 10
530.9158586333
 20
-594.2907179216
 10
526.7184815175
 20
-591.3092631323
 10
522.7092809832
 20
-588.0319080242
 10
518.894516921
 20
-584.4637697982
 10
515.2801456322
 20
-580.6104196786
 10
511.8718105286
 20
-576.4778742142
 10
508.6748333207
 20
-572.0725858842
 10
505.694205709
 20
-567.4014330233
 10
502.9345815897
 20
-562.4717090823
 10
500.4002697883
 20
-557.2911112399
 10
498.0952273317
 20
-551.8677283846
 10
496.0230532702
 20
-546.210028485
 10
494.1869830576
 20
-540.3268453679
 10
492.6004983205
 20
-534.2719309298
  0
LWPOLYLINE
  5
E8
330
1F
100
AcDbEntity
  8
0
  6
Continuous
 62
     7
370
    25
100
AcDbPolyline
 90
       73
 70
   128
 43
0.0
 10
700.572852335
 20
-227.6332605597
 10
701.073040659
 20
-227.9252861382
 10
704.9158987039
 20
-230.3987738618
 10
708.573943442
 20
-233.1719750383
 10
712.0399121641
 20
-236.2393837334
 10
715.3069235103
 20
-239.5949098911
 10
718.3684911317
 20
-243.2318914249
 10
721.2185365693
 20
-247.1431074445
 10
723.8514013218
 20
-251.3207925925
 10
726.2618580798
 20
-255.7566524619
 10
728.4451211046
 20
-260.4418800635
 10
730.3968557295
 20
-265.3671733114
 10
732.1131869661
 20
-270.522753492
 10
733.5907071976
 20
-275.8983846779
 10
734.8264829444
 20
-281.4833940511
 10
735.8180606881
 20
-287.2666930923
 10
736.5634717428
 20
-293.2367995968
 10
737.0612361639
 20
-299.3818604706
 10
737.3103656863
 20
-305.6896752641
 10
737.3103656863
 20
-312.1477203951
 10
737.0612361639
 20
-318.7431740127
 10
736.5634717428
 20
-325.4629414541
 10
735.8180606881
 20
-332.2936812433
 10
734.8264829444
 20
-339.2218315785
 10
733.5907071976
 20
-346.2336372587
 10
732.1131869661
 20
-353.3151769927
 10
730.3968557295
 20
-360.4523910388
 10
728.4451211046
 20
-367.6311091192
 10
726.2618580798
 20
-374.8370785536
 10
723.8514013218
 20
-382.0559925568
 10
721.2185365693
 20
-389.2735186432
 10
718.3684911317
 20
-396.4753270829
 10
715.3069235103
 20
-403.6471193518
 10
712.0399121641
 20
-410.7746565202
 10
708.573943442
 20
-417.8437875229
 10
704.9158987039
 20
-424.8404772545
 10
701.073040659
 20
-431.7508344353
 10
697.0529989463
 20
-438.5611391908
 10
692.8637549865
 20
-445.2578702912
 10
688.5136261356
 20
-451.8277319968
 10
684.011249172
 20
-458.2576804553
 10
679.3655631482
 20
-464.5349495993
 10
674.5857916438
 20
-470.6470764919
 10
669.6814244528
 20
-476.581926071
 10
664.6621987422
 20
-482.327715242
 10
659.53807972
 20
-487.8730362724
 10
654.3192408504
 20
-493.2068794407
 10
649.0160436546
 20
-498.3186548948
 10
643.63901714
 20
-503.1982136779
 10
638.1988368949
 20
-507.8358678776
 10
632.7063038937
 20
-512.2224098608
 10
627.1723230522
 20
-516.3491305545
 10
621.607881577
 20
-520.2078367366
 10
616.0240271518
 20
-523.7908673033
 10
610.4318460026
 20
-527.091108479
 10
604.8424408873
 20
-530.1020079403
 10
599.2669090526
 20
-532.817587825
 10
593.7163202008
 20
-535.2324566008
 10
588.2016945122
 20
-537.3418197691
 10
582.7339807656
 20
-539.1414893846
 10
577.3240346007
 20
-540.6278923699
 10
571.9825969648
 20
-541.7980776094
 10
566.7202727878
 20
-542.6497218087
 10
561.5475099273
 20
-543.1811341071
 10
556.4745784251
 20
-543.3912594346
 10
551.5115501173
 20
-543.2796806068
 10
546.668278637
 20
-542.8466191531
 10
541.9543798515
 20
-542.0929348771
 10
537.3792127705
 20
-541.020124149
 10
532.9518609648
 20
-539.6303169353
 10
528.6811145314
 20
-537.9262725695
 10
524.5754526422
 20
-535.911374274
 10
523.0872772921
 20
-535.0806067049
  0
LWPOLYLINE
  5
E9
330
1F
100
AcDbEntity
  8
0
  6
Continuous
 62
     7
370
    25
100
AcDbPolyline
 90
      102
 70
   128
 43
0.0
 10
652.6965735587
 20
-205.3260044269
 10
654.5751157719
 20
-204.8311528528
 10
660.2457124663
 20
-203.5346039222
 10
665.8396417001
 20
-202.5547899731
 10
671.3470898206
 20
-201.8934299322
 10
676.7583948923
 20
-201.5516840497
 10
682.0640636475
 20
-201.530151864
 10
687.2547881401
 20
-201.8288711499
 10
692.3214620757
 20
-202.4473178523
 10
697.2551967864
 20
-203.3844070055
 10
702.0473368252
 20
-204.6384946366
 10
706.6894751499
 20
-206.2073806499
 10
711.1734678726
 20
-208.0883126862
 10
715.4914485464
 20
-210.2779909515
 10
719.6358419658
 20
-212.7725740061
 10
723.5993774567
 20
-215.5676855037
 10
727.3751016308
 20
-218.6584218688
 10
730.956390585
 20
-222.0393608997
 10
734.3369615215
 20
-225.7045712805
 10
737.5108837703
 20
-229.6476229867
 10
740.4725891931
 20
-233.8615985658
 10
743.2168819522
 20
-238.3391052727
 10
745.7389476257
 20
-243.072288039
 10
748.0343616533
 20
-248.0528432541
 10
750.0990970989
 20
-253.2720333315
 10
751.9295317148
 20
-258.7207020383
 10
753.5224542969
 20
-264.3892905583
 10
754.8750703175
 20
-270.267854261
 10
755.9850068286
 20
-276.3460801479
 10
756.8503166243
 20
-282.6133049457
 10
757.4694816573
 20
-289.0585338123
 10
757.8414157017
 20
-295.6704596262
 10
757.9654662588
 20
-302.4374828228
 10
757.8414157017
 20
-309.3477317439
 10
757.4694816573
 20
-316.3890834648
 10
756.8503166243
 20
-323.549185062
 10
755.9850068286
 20
-330.8154752842
 10
754.8750703175
 20
-338.1752065893
 10
753.5224542969
 20
-345.6154675077
 10
751.9295317148
 20
-353.1232052935
 10
750.0990970989
 20
-360.6852488235
 10
748.0343616533
 20
-368.2883317038
 10
745.7389476257
 20
-375.9191155434
 10
743.2168819522
 20
-383.5642133545
 10
740.4725891931
 20
-391.2102130378
 10
737.5108837703
 20
-398.8437009117
 10
734.3369615215
 20
-406.4512852445
 10
730.956390585
 20
-414.0196197483
 10
727.3751016308
 20
-421.5354269926
 10
723.5993774567
 20
-428.9855216976
 10
719.6358419658
 20
-436.3568338657
 10
715.4914485464
 20
-443.6364317105
 10
711.1734678726
 20
-450.8115443438
 10
706.6894751499
 20
-457.8695841799
 10
702.0473368252
 20
-464.7981690185
 10
697.2551967864
 20
-471.5851437676
 10
692.3214620757
 20
-478.2186017672
 10
687.2547881401
 20
-484.6869056779
 10
682.0640636475
 20
-490.9787078966
 10
676.7583948923
 20
-497.0829704644
 10
671.3470898206
 20
-502.9889844304
 10
665.8396417001
 20
-508.6863886393
 10
660.2457124663
 20
-514.1651879081
 10
654.5751157719
 20
-519.4157705612
 10
648.8377997705
 20
-524.4289252924
 10
643.0438296637
 20
-529.1958573249
 10
637.203370044
 20
-533.70820384
 10
631.3266670622
 20
-537.9580486487
 10
625.4240304521
 20
-541.937936079
 10
619.5058154442
 20
-545.6408840561
 10
613.5824045986
 20
-549.0603963509
 10
607.6641895908
 20
-552.1904739769
 10
601.7615529807
 20
-555.0256257143
 10
595.8848499989
 20
-557.5608777436
 10
590.0443903792
 20
-559.7917823712
 10
584.2504202724
 20
-561.7144258324
 10
578.5131042709
 20
-563.3254351572
 10
572.8425075766
 20
-564.6219840879
 10
567.2485783428
 20
-565.601798037
 10
561.7411302223
 20
-566.2631580779
 10
556.3298251505
 20
-566.6049039604
 10
551.0241563954
 20
-566.626436146
 10
545.8334319028
 20
-566.3277168601
 10
540.7667579672
 20
-565.7092701578
 10
535.8330232565
 20
-564.7721810046
 10
531.0408832177
 20
-563.5180933734
 10
526.398744893
 20
-561.9492073601
 10
521.9147521703
 20
-560.0682753239
 10
517.5967714965
 20
-557.8785970585
 10
513.4523780771
 20
-555.384014004
 10
509.4888425862
 20
-552.5889025064
 10
505.7131184121
 20
-549.4981661412
 10
502.1318294579
 20
-546.1172271103
 10
498.7512585214
 20
-542.4520167295
 10
495.5773362726
 20
-538.5089650233
 10
492.6156308498
 20
-534.2949894442
 10
489.8713380907
 20
-529.8174827374
 10
487.3492724172
 20
-525.084299971
 10
485.0538583896
 20
-520.103744756
 10
482.989122944
 20
-514.8845546786
 10
481.158688328
 20
-509.4358859717
 10
479.8276435047
 20
-504.776220385
  0
LWPOLYLINE
  5
EA
330
1F
100
AcDbEntity
  8
0
  6
Continuous
 62
     7
370
    25
100
AcDbPolyline
 90
       82
 70
   128
 43
0.0
 10
796.4981921962
 20
-228.1629906371
 10
798.1620403511
 20
-229.1523487387
 10
802.4510660868
 20
-231.9840785049
 10
806.5551559962
 20
-235.1140944067
 10
810.4679020301
 20
-238.537509296
 10
814.1831948999
 20
-242.2489779167
 10
817.695233617
 20
-246.2427052512
 10
820.9985345497
 20
-250.5124555682
 10
824.0879399858
 20
-255.0515621597
 10
826.9586261855
 20
-259.8529377493
 10
829.6061109129
 20
-264.9090855592
 10
832.0262604351
 20
-270.2121110146
 10
834.2152959757
 20
-275.7537340709
 10
836.1697996156
 20
-281.5253021415
 10
837.8867196295
 20
-287.517803608
 10
839.3633752505
 20
-293.7218818906
 10
840.5974608562
 20
-300.1278500577
 10
841.5870495683
 20
-306.7257059503
 10
842.3305962617
 20
-313.5051477997
 10
842.8269399763
 20
-320.4555903122
 10
843.0753057305
 20
-327.5661811969
 10
843.0753057305
 20
-334.8258181102
 10
842.8269399763
 20
-342.2231659908
 10
842.3305962617
 20
-349.7466747582
 10
841.5870495683
 20
-357.3845973465
 10
840.5974608562
 20
-365.1250080462
 10
839.3633752505
 20
-372.9558211249
 10
837.8867196295
 20
-380.8648096975
 10
836.1697996156
 20
-388.8396248172
 10
834.2152959757
 20
-396.867814757
 10
832.0262604351
 20
-404.9368444511
 10
829.6061109129
 20
-413.0341150676
 10
826.9586261855
 20
-421.1469836797
 10
824.0879399858
 20
-429.2627830059
 10
820.9985345497
 20
-437.3688411892
 10
817.695233617
 20
-445.4525015819
 10
814.1831948999
 20
-453.5011425078
 10
810.4679020301
 20
-461.5021969696
 10
806.5551559962
 20
-469.4431722706
 10
802.4510660868
 20
-477.3116695204
 10
798.1620403511
 20
-485.0954029946
 10
793.6947755936
 20
-492.7822193175
 10
789.056246918
 20
-500.3601164378
 10
784.2536968361
 20
-507.8172623687
 10
779.2946239598
 20
-515.142013662
 10
774.1867712927
 20
-522.3229335881
 10
768.9381141405
 20
-529.348809993
 10
763.5568476581
 20
-536.2086728047
 10
758.0513740545
 20
-542.8918111616
 10
752.4302894731
 20
-549.3877901367
 10
746.7023705703
 20
-555.6864670299
 10
740.8765608113
 20
-561.7780072048
 10
734.9619565068
 20
-567.6528994446
 10
728.967792609
 20
-573.3019708025
 10
722.9034282935
 20
-578.7164009241
 10
716.7783323452
 20
-583.8877358196
 10
710.6020683743
 20
-588.8079010633
 10
704.3842798839
 20
-593.4692144013
 10
698.1346752126
 20
-597.8643977462
 10
691.8630123763
 20
-601.9865885408
 10
685.5790838318
 20
-605.8293504736
 10
679.2927011878
 20
-609.3866835281
 10
673.0136798845
 20
-612.6530333509
 10
666.7518238683
 20
-615.6232999244
 10
660.516910284
 20
-618.2928455302
 10
654.3186742091
 20
-620.6575019895
 10
648.1667934534
 20
-622.713577172
 10
642.0708734484
 20
-624.4578607604
 10
636.0404322496
 20
-625.887629263
 10
630.0848856751
 20
-627.0006502659
 10
624.2135326039
 20
-627.7951859189
 10
618.4355404569
 20
-628.269995649
 10
612.7599308828
 20
-628.4243380972
 10
607.1955656723
 20
-628.2579722759
 10
601.7511329212
 20
-627.7711579458
 10
596.4351334648
 20
-626.9646552095
 10
591.2558676054
 20
-625.8397233254
 10
586.2214221517
 20
-624.3981187411
 10
581.3396577927
 20
-622.642092351
 10
576.6181968238
 20
-620.5743859818
 10
572.0644112461
 20
-618.1982281117
 10
571.5164773531
 20
-617.8849787084
  0
LWPOLYLINE
  5
EB
330
1F
100
AcDbEntity
  8
0
  6
Continuous
 62
     7
370
    25
100
AcDbPolyline
 90
       69
 70
   128
 43
0.0
 10
660.9275584789
 20
-227.8399047965
 10
661.3976208874
 20
-228.114524827
 10
665.0061400845
 20
-230.4519892093
 10
668.4298506086
 20
-233.0879927609
 10
671.6611128228
 20
-236.016653527
 10
674.6927165176
 20
-239.2314365204
 10
677.5178969998
 20
-242.7251683031
 10
680.130350187
 20
-246.4900529934
 10
682.5242466745
 20
-250.5176896614
 10
684.6942447433
 20
-254.7990910748
 10
686.6355022792
 20
-259.3247037529
 10
688.3436875775
 20
-264.0844292842
 10
689.8149890088
 20
-269.0676468599
 10
691.0461235244
 20
-274.263236973
 10
692.0343439817
 20
-279.6596062304
 10
692.7774452746
 20
-285.2447132222
 10
693.2737692534
 20
-291.0060953907
 10
693.5222084252
 20
-296.9308968395
 10
693.5222084252
 20
-303.0058970199
 10
693.2737692534
 20
-309.217540231
 10
692.7774452746
 20
-315.5519658679
 10
692.0343439817
 20
-321.99503935
 10
691.0461235244
 20
-328.5323836611
 10
689.8149890088
 20
-335.1494114298
 10
688.3436875775
 20
-341.8313574797
 10
686.6355022792
 20
-348.5633117763
 10
684.6942447433
 20
-355.3302526972
 10
682.5242466745
 20
-362.1170805514
 10
680.130350187
 20
-368.9086512719
 10
677.5178969998
 20
-375.6898102089
 10
674.6927165176
 20
-382.4454259452
 10
671.6611128228
 20
-389.1604240605
 10
668.4298506086
 20
-395.8198207682
 10
665.0061400845
 20
-402.4087563504
 10
661.3976208874
 20
-408.9125283153
 10
657.6123450347
 20
-415.3166242046
 10
653.6587589569
 20
-421.6067539761
 10
649.5456846506
 20
-427.7688818908
 10
645.2822999928
 20
-433.7892578318
 10
640.8781182617
 20
-439.6544479862
 10
636.3429669089
 20
-445.3513648214
 10
631.6869656305
 20
-450.8672962883
 10
626.9205037859
 20
-456.1899341869
 10
622.0542172153
 20
-461.3074016308
 10
617.0989645068
 20
-466.2082795491
 10
612.0658027669
 20
-470.8816321668
 10
606.9659629474
 20
-475.3170314068
 10
601.8108247852
 20
-479.5045801592
 10
596.6118914093
 20
-483.4349343651
 10
591.380763673
 20
-487.0993238675
 10
586.1291142676
 20
-490.4895719805
 10
580.8686616766
 20
-493.598113735
 10
575.6111440267
 20
-496.4180127588
 10
570.3682928955
 20
-498.9429767545
 10
565.1518071339
 20
-501.1673715402
 10
559.9733267615
 20
-503.0862336212
 10
554.844406993
 20
-504.6952812659
 10
549.7764924537
 20
-505.9909240599
 10
544.7808916428
 20
-506.9702709175
 10
539.868751699
 20
-507.6311365329
 10
535.0510335273
 20
-507.9720462565
 10
530.3384873407
 20
-507.9922393854
 10
525.7416286726
 20
-507.6916708608
 10
521.2707149122
 20
-507.0710113686
 10
516.9357224161
 20
-506.1316458429
 10
512.7463242478
 20
-504.8756703755
 10
508.7118685928
 20
-503.3058875387
 10
504.8413578991
 20
-501.4258001318
 10
503.4403580887
 20
-500.6452964464
  0
LWPOLYLINE
  5
EC
330
1F
100
AcDbEntity
  8
0
  6
Continuous
 62
     7
370
    25
100
AcDbPolyline
 90
       95
 70
   128
 43
0.0
 10
620.8866681469
 20
-207.3890434412
 10
623.5601995319
 20
-206.7658490633
 10
628.8633967276
 20
-205.7546833657
 10
634.0822355973
 20
-205.0629834323
 10
639.2063546195
 20
-204.6921225692
 10
644.2255803301
 20
-204.6428370864
 10
649.1299475211
 20
-204.9152248356
 10
653.9097190255
 20
-205.5087450161
 10
658.5554050493
 20
-206.4222192486
 10
663.0577820129
 20
-207.6538339146
 10
667.4079108637
 20
-209.201143757
 10
671.5971548236
 20
-211.0610767356
 10
675.6171965363
 20
-213.2299401254
 10
679.4600545811
 20
-215.703427849
 10
683.1180993193
 20
-218.4766290255
 10
686.5840680414
 20
-221.5440377206
 10
689.8510793875
 20
-224.8995638783
 10
692.912647009
 20
-228.5365454121
 10
695.7626924466
 20
-232.4477614317
 10
698.3955571991
 20
-236.6254465797
 10
700.8060139571
 20
-241.0613064491
 10
702.9892769819
 20
-245.7465340506
 10
704.9410116068
 20
-250.6718272986
 10
706.6573428434
 20
-255.8274074792
 10
708.1348630749
 20
-261.2030386651
 10
709.3706388217
 20
-266.7880480382
 10
710.3622165654
 20
-272.5713470795
 10
711.1076276201
 20
-278.541453584
 10
711.6053920412
 20
-284.6865144578
 10
711.8545215636
 20
-290.9943292513
 10
711.8545215636
 20
-297.4523743823
 10
711.6053920412
 20
-304.0478279999
 10
711.1076276201
 20
-310.7675954413
 10
710.3622165654
 20
-317.5983352305
 10
709.3706388217
 20
-324.5264855657
 10
708.1348630749
 20
-331.5382912459
 10
706.6573428434
 20
-338.6198309799
 10
704.9410116068
 20
-345.757045026
 10
702.9892769819
 20
-352.9357631064
 10
700.8060139571
 20
-360.1417325408
 10
698.3955571991
 20
-367.360646544
 10
695.7626924466
 20
-374.5781726304
 10
692.912647009
 20
-381.7799810701
 10
689.8510793875
 20
-388.951773339
 10
686.5840680414
 20
-396.0793105074
 10
683.1180993193
 20
-403.1484415101
 10
679.4600545811
 20
-410.1451312417
 10
675.6171965363
 20
-417.0554884225
 10
671.5971548236
 20
-423.865793178
 10
667.4079108637
 20
-430.5625242784
 10
663.0577820129
 20
-437.132385984
 10
658.5554050493
 20
-443.5623344425
 10
653.9097190255
 20
-449.8396035865
 10
649.1299475211
 20
-455.9517304791
 10
644.2255803301
 20
-461.8865800582
 10
639.2063546195
 20
-467.6323692292
 10
634.0822355973
 20
-473.1776902596
 10
628.8633967276
 20
-478.5115334278
 10
623.5601995319
 20
-483.623308882
 10
618.1831730173
 20
-488.5028676651
 10
612.7429927722
 20
-493.1405218648
 10
607.250459771
 20
-497.527063848
 10
601.7164789294
 20
-501.6537845417
 10
596.1520374543
 20
-505.5124907238
 10
590.5681830291
 20
-509.0955212905
 10
584.9760018798
 20
-512.3957624661
 10
579.3865967646
 20
-515.4066619275
 10
573.8110649299
 20
-518.1222418122
 10
568.2604760781
 20
-520.537110588
 10
562.7458503894
 20
-522.6464737563
 10
557.2781366429
 20
-524.4461433718
 10
551.868190478
 20
-525.9325463571
 10
546.5267528421
 20
-527.1027315966
 10
541.2644286651
 20
-527.9543757959
 10
536.0916658046
 20
-528.4857880943
 10
531.0187343024
 20
-528.6959134217
 10
526.0557059946
 20
-528.584334594
 10
521.2124345143
 20
-528.1512731403
 10
516.4985357288
 20
-527.3975888643
 10
511.9233686478
 20
-526.3247781362
 10
507.496016842
 20
-524.9349709225
 10
503.2252704087
 20
-523.2309265567
 10
499.1196085195
 20
-521.2160282612
 10
495.1871825861
 20
-518.8942764301
 10
491.4358000762
 20
-516.2702806866
 10
487.8729090125
 20
-513.3492507315
 10
484.5055831855
 20
-510.1369859993
 10
481.3405081088
 20
-506.6398641444
 10
478.383967746
 20
-502.8648283785
 10
475.6418320344
 20
-498.8193736855
 10
473.1195452306
 20
-494.5115319415
 10
470.8221151016
 20
-489.9498559673
 10
468.7541029822
 20
-485.1434025485
 10
466.9196147191
 20
-480.1017144533
 10
465.7066531883
 20
-476.1978396617
  0
LWPOLYLINE
  5
ED
330
1F
100
AcDbEntity
  8
0
  6
Continuous
 62
     7
370
    25
100
AcDbPolyline
 90
      126
 70
   128
 43
0.0
 10
458.5816929324
 20
-406.2059775692
 10
458.7056561214
 20
-400.4399318968
 10
459.0772325465
 20
-394.5453269047
 10
459.6954835735
 20
-388.5370528767
 10
460.5588474467
 20
-382.4302872344
 10
461.6651432339
 20
-376.2404561978
 10
463.011576336
 20
-369.9831958174
 10
464.5947455461
 20
-363.6743124759
 10
466.4106516414
 20
-357.3297429602
 10
468.4547074855
 20
-350.9655142035
 10
470.721749616
 20
-344.5977027999
 10
473.2060512876
 20
-338.2423943938
 10
475.9013369387
 20
-331.9156430457
 10
478.8007980438
 20
-325.6334306786
 10
481.8971103127
 20
-319.4116267063
 10
485.1824521917
 20
-313.2659479454
 10
488.6485246221
 20
-307.2119189139
 10
492.2865720042
 20
-301.2648326145
 10
496.0874043145
 20
-295.4397119035
 10
500.0414203208
 20
-289.7512715412
 10
504.1386318354
 20
-284.2138810217
 10
508.3686889466
 20
-278.8415282741
 10
512.7209061628
 20
-273.6477843276
 10
517.1842894058
 20
-268.6457690301
 10
521.747563782
 20
-263.8481179065
 10
526.3992020643
 20
-259.2669502399
 10
531.1274538108
 20
-254.9138384574
 10
535.9203750472
 20
-250.7997788971
 10
540.7658584384
 20
-246.9351640305
 10
545.6516638729
 20
-243.3297562103
 10
550.5654493822
 20
-239.9926630093
 10
555.4948023175
 20
-236.9323142148
 10
560.4272707056
 20
-234.1564405334
 10
565.3503947032
 20
-231.6720540628
 10
570.2517380718
 20
-229.485430579
 10
575.1189195928
 20
-227.6020936825
 10
579.9396443431
 20
-226.026800846
 10
584.7017347537
 20
-224.7635313957
 10
589.393161371
 20
-223.81547646
 10
594.002073244
 20
-223.185030908
 10
598.5168278615
 20
-222.8737872997
 10
602.9260205614
 20
-222.8825318635
 10
607.2185133403
 20
-223.21124251
 10
611.3834629889
 20
-223.8590888875
 10
615.410348483
 20
-224.8244344798
 10
619.2889975602
 20
-226.1048407402
 10
623.0096124165
 20
-227.6970732514
 10
626.5627944557
 20
-229.5971098958
 10
629.9395680317
 20
-231.800151016
 10
633.1314031213
 20
-234.3006315388
 10
636.1302368722
 20
-237.0922350336
 10
638.9284939699
 20
-240.1679096676
 10
641.5191057742
 20
-243.5198860197
 10
643.8955281749
 20
-247.1396967067
 10
646.0517581227
 20
-251.0181977728
 10
647.9823487936
 20
-255.1455917875
 10
649.6824233481
 20
-259.5114525955
 10
651.1476872502
 20
-264.1047516534
 10
652.3744391163
 20
-268.9138858891
 10
653.3595800645
 20
-273.9267070122
 10
654.1006215435
 20
-279.1305522015
 10
654.595691618
 20
-284.5122760924
 10
654.8435396981
 20
-290.0582839833
 10
654.8435396981
 20
-295.7545661769
 10
654.595691618
 20
-301.58673337
 10
654.1006215435
 20
-307.5400530022
 10
653.3595800645
 20
-313.5994864714
 10
652.3744391163
 20
-319.7497271227
 10
651.1476872502
 20
-325.9752389145
 10
649.6824233481
 20
-332.2602956638
 10
647.9823487936
 20
-338.5890207716
 10
646.0517581227
 20
-344.9454273291
 10
643.8955281749
 20
-351.3134585018
 10
641.5191057742
 20
-357.6770280901
 10
638.9284939699
 20
-364.020061165
 10
636.1302368722
 20
-370.3265346745
 10
633.1314031213
 20
-376.5805179192
 10
629.9395680317
 20
-382.7662127945
 10
626.5627944557
 20
-388.8679936985
 10
623.0096124165
 20
-394.870447003
 10
619.2889975602
 20
-400.75840999
 10
615.410348483
 20
-406.517009154
 10
611.3834629889
 20
-412.1316977737
 10
607.2185133403
 20
-417.5882926584
 10
602.9260205614
 20
-422.8730099759
 10
598.5168278615
 20
-427.9725000715
 10
594.002073244
 20
-432.8738811907
 10
589.393161371
 20
-437.5647720194
 10
584.7017347537
 20
-442.0333229602
 10
579.9396443431
 20
-446.2682460658
 10
575.1189195928
 20
-450.2588435526
 10
570.2517380718
 20
-453.9950348253
 10
565.3503947032
 20
-457.4673819403
 10
560.4272707056
 20
-460.6671134475
 10
555.4948023175
 20
-463.5861465474
 10
550.5654493822
 20
-466.2171075091
 10
545.6516638729
 20
-468.5533502968
 10
540.7658584384
 20
-470.5889733585
 10
535.9203750472
 20
-472.3188345337
 10
531.1274538108
 20
-473.7385640429
 10
526.3992020643
 20
-474.8445755262
 10
521.747563782
 20
-475.6340751025
 10
517.1842894058
 20
-476.1050684274
 10
512.7209061628
 20
-476.256365731
 10
508.3686889466
 20
-476.087584823
 10
504.1386318354
 20
-475.5991520587
 10
500.0414203208
 20
-474.7923012616
 10
496.0874043145
 20
-473.669070607
 10
492.2865720042
 20
-472.2322974728
 10
488.6485246221
 20
-470.4856112729
 10
485.1824521917
 20
-468.4334242879
 10
481.8971103127
 20
-466.0809205205
 10
478.8007980438
 20
-463.4340425993
 10
475.9013369387
 20
-460.4994767676
 10
473.2060512876
 20
-457.2846359934
 10
470.721749616
 20
-453.7976412435
 10
468.4547074855
 20
-450.0473009693
 10
466.4106516414
 20
-446.0430888558
 10
464.5947455461
 20
-441.7951198903
 10
463.011576336
 20
-437.3141248111
 10
461.6651432339
 20
-432.6114230007
 10
460.5588474467
 20
-427.6988938919
 10
459.6954835735
 20
-422.5889469597
 10
459.0772325465
 20
-417.2944903735
 10
458.7056561214
 20
-411.8288983901
 10
458.5816929324
 20
-406.2059775692
  0
LWPOLYLINE
  5
EE
330
1F
100
AcDbEntity
  8
0
  6
Continuous
 62
     7
370
    25
100
AcDbPolyline
 90
      134
 70
   128
 43
0.0
 10
445.3587961242
 20
-413.8393934147
 10
445.4830503724
 20
-407.6943574826
 10
445.8555358573
 20
-401.4195726272
 10
446.4754214182
 20
-395.029040347
 10
447.3413238478
 20
-388.5370204183
 10
448.4513109794
 20
-381.9579990763
 10
449.8029059976
 20
-375.3066566901
 10
451.3930929653
 20
-368.5978350052
 10
453.2183235538
 20
-361.8465040263
 10
455.2745249598
 20
-355.0677286127
 10
457.557108994
 20
-348.2766348629
 10
460.0609823188
 20
-341.4883763626
 10
462.7805578139
 20
-334.7181003709
 10
465.7097670428
 20
-327.9809140208
 10
468.8420737943
 20
-321.2918506096
 10
472.1704886674
 20
-314.6658360531
 10
475.6875846669
 20
-308.1176555809
 10
479.3855137764
 20
-301.661920744
 10
483.2560244701
 20
-295.3130368112
 10
487.2904801251
 20
-289.0851706252
 10
491.4798782934
 20
-282.9922189906
 10
495.8148707894
 20
-277.047777665
 10
500.2857845499
 20
-271.2651110214
 10
504.882643218
 20
-265.6571224502
 10
509.5951894045
 20
-260.2363255668
 10
514.4129075762
 20
-255.0148162888
 10
519.3250475201
 20
-250.004245845
 10
524.320648331
 20
-245.2157947773
 10
529.3885628702
 20
-240.6601479925
 10
534.5174826388
 20
-236.3474709199
 10
539.6959630112
 20
-232.2873868284
 10
544.9124487727
 20
-228.4889553532
 10
550.155299904
 20
-224.9606522802
 10
555.4128175539
 20
-221.7103506332
 10
560.6732701449
 20
-218.7453031062
 10
565.9249195503
 20
-216.0721258795
 10
571.1560472866
 20
-213.6967838567
 10
576.3549806625
 20
-211.6245773549
 10
581.5101188247
 20
-209.860130277
 10
586.6099586442
 20
-208.4073797943
 10
591.6431203841
 20
-207.2695675612
 10
596.5983730926
 20
-206.4492324817
 10
601.4646596632
 20
-205.9482050442
 10
606.2311215078
 20
-205.7676032368
 10
610.8871227862
 20
-205.9078300527
 10
615.422274139
 20
-206.3685725911
 10
619.82645587
 20
-207.1488027553
 10
624.0898405279
 20
-208.2467795465
 10
628.2029148342
 20
-209.6600529493
 10
632.156500912
 20
-211.3854693981
 10
635.9417767647
 20
-213.4191788142
 10
639.5502959618
 20
-215.7566431965
 10
642.9740064859
 20
-218.392646748
 10
646.2052687001
 20
-221.3213075142
 10
649.2368723949
 20
-224.5360905076
 10
652.0620528771
 20
-228.0298222903
 10
654.6745060643
 20
-231.7947069806
 10
657.0684025518
 20
-235.8223436486
 10
659.2384006206
 20
-240.103745062
 10
661.1796581565
 20
-244.6293577401
 10
662.8878434547
 20
-249.3890832714
 10
664.3591448861
 20
-254.3723008471
 10
665.5902794017
 20
-259.5678909602
 10
666.578499859
 20
-264.9642602176
 10
667.3216011518
 20
-270.5493672093
 10
667.8179251306
 20
-276.3107493779
 10
668.0663643025
 20
-282.2355508267
 10
668.0663643025
 20
-288.3105510071
 10
667.8179251306
 20
-294.5221942182
 10
667.3216011518
 20
-300.8566198551
 10
666.578499859
 20
-307.2996933372
 10
665.5902794017
 20
-313.8370376483
 10
664.3591448861
 20
-320.454065417
 10
662.8878434547
 20
-327.1360114668
 10
661.1796581565
 20
-333.8679657635
 10
659.2384006206
 20
-340.6349066844
 10
657.0684025518
 20
-347.4217345386
 10
654.6745060643
 20
-354.2133052591
 10
652.0620528771
 20
-360.9944641961
 10
649.2368723949
 20
-367.7500799324
 10
646.2052687001
 20
-374.4650780477
 10
642.9740064859
 20
-381.1244747554
 10
639.5502959618
 20
-387.7134103376
 10
635.9417767647
 20
-394.2171823025
 10
632.156500912
 20
-400.6212781917
 10
628.2029148342
 20
-406.9114079633
 10
624.0898405279
 20
-413.073535878
 10
619.82645587
 20
-419.093911819
 10
615.422274139
 20
-424.9591019734
 10
610.8871227862
 20
-430.6560188086
 10
606.2311215078
 20
-436.1719502754
 10
601.4646596632
 20
-441.4945881741
 10
596.5983730926
 20
-446.612055618
 10
591.6431203841
 20
-451.5129335363
 10
586.6099586442
 20
-456.186286154
 10
581.5101188247
 20
-460.621685394
 10
576.3549806625
 20
-464.8092341464
 10
571.1560472866
 20
-468.7395883523
 10
565.9249195503
 20
-472.4039778547
 10
560.6732701449
 20
-475.7942259677
 10
555.4128175539
 20
-478.9027677222
 10
550.155299904
 20
-481.722666746
 10
544.9124487727
 20
-484.2476307417
 10
539.6959630112
 20
-486.4720255274
 10
534.5174826388
 20
-488.3908876084
 10
529.3885628702
 20
-489.9999352531
 10
524.320648331
 20
-491.2955780471
 10
519.32504752
 20
-492.2749249047
 10
514.4129075762
 20
-492.9357905201
 10
509.5951894045
 20
-493.2767002437
 10
504.882643218
 20
-493.2968933726
 10
500.2857845499
 20
-492.996324848
 10
495.8148707894
 20
-492.3756653558
 10
491.4798782934
 20
-491.4362998301
 10
487.2904801251
 20
-490.1803243627
 10
483.2560244701
 20
-488.6105415258
 10
479.3855137764
 20
-486.730454119
 10
475.6875846669
 20
-484.5442573523
 10
472.1704886674
 20
-482.0568294855
 10
468.8420737943
 20
-479.273720943
 10
465.7097670428
 20
-476.201141928
 10
462.7805578139
 20
-472.8459485658
 10
460.0609823188
 20
-469.2156276049
 10
457.557108994
 20
-465.3182797107
 10
455.2745249598
 20
-461.1626013904
 10
453.2183235538
 20
-456.7578655873
 10
451.3930929653
 20
-452.1139009893
 10
449.8029059976
 20
-447.2410700973
 10
448.4513109794
 20
-442.1502461024
 10
447.3413238478
 20
-436.8527886236
 10
446.4754214182
 20
-431.36051836
 10
445.8555358573
 20
-425.6856907141
 10
445.4830503724
 20
-419.8409684454
 10
445.3587961242
 20
-413.8393934147
  0
LWPOLYLINE
  5
EF
330
1F
100
AcDbEntity
  8
0
  6
Continuous
 62
     7
370
    25
100
AcDbPolyline
 90
       43
 70
   128
 43
0.0
 10
493.5501061369
 20
-426.3928128233
 10
493.6740693259
 20
-420.6267671509
 10
494.045645751
 20
-414.7321621588
 10
494.6638967781
 20
-408.7238881308
 10
495.5272606512
 20
-402.6171224885
 10
496.6335564385
 20
-396.4272914519
 10
497.9799895406
 20
-390.1700310715
 10
499.5631587507
 20
-383.86114773
 10
501.379064846
 20
-377.5165782143
 10
503.4231206901
 20
-371.1523494576
 10
505.6901628205
 20
-364.784538054
 10
508.1744644921
 20
-358.4292296479
 10
510.8697501432
 20
-352.1024782998
 10
513.7692112484
 20
-345.8202659328
 10
516.8655235172
 20
-339.5984619604
 10
520.1508653962
 20
-333.4527831995
 10
523.6169378266
 20
-327.398754168
 10
527.2549852087
 20
-321.4516678686
 10
531.055817519
 20
-315.6265471576
 10
535.0098335253
 20
-309.9381067953
 10
539.10704504
 20
-304.4007162758
 10
543.3371021511
 20
-299.0283635282
 10
547.6893193674
 20
-293.8346195817
 10
552.1527026103
 20
-288.8326042842
 10
556.7159769865
 20
-284.0349531607
 10
561.3676152689
 20
-279.453785494
 10
566.0958670153
 20
-275.1006737115
 10
570.8887882517
 20
-270.9866141512
 10
575.7342716429
 20
-267.1219992846
 10
580.6200770775
 20
-263.5165914644
 10
585.5338625867
 20
-260.1794982634
 10
590.463215522
 20
-257.1191494689
 10
595.3956839101
 20
-254.3432757875
 10
600.3188079077
 20
-251.8588893169
 10
605.2201512764
 20
-249.6722658331
 10
610.0873327973
 20
-247.7889289366
 10
614.9080575477
 20
-246.2136361001
 10
619.6701479583
 20
-244.9503666498
 10
624.3615745755
 20
-244.0023117142
 10
628.9704864485
 20
-243.3718661621
 10
633.485241066
 20
-243.0606225538
 10
637.8944337659
 20
-243.0693671176
 10
641.3686985562
 20
-243.3098091548
  0
LWPOLYLINE
  5
F0
330
1F
100
AcDbEntity
  8
0
  6
Continuous
 62
     7
370
    25
100
AcDbPolyline
 90
       12
 70
   128
 43
0.0
 10
507.0559429704
 20
-475.9715353166
 10
505.6901628205
 20
-473.9844764976
 10
503.4231206901
 20
-470.2341362234
 10
501.379064846
 20
-466.2299241099
 10
499.5631587507
 20
-461.9819551444
 10
497.9799895406
 20
-457.5009600652
 10
496.6335564385
 20
-452.7982582548
 10
495.5272606512
 20
-447.885729146
 10
494.6638967781
 20
-442.7757822138
 10
494.045645751
 20
-437.4813256276
 10
493.6740693259
 20
-432.0157336442
 10
493.5501061369
 20
-426.3928128233
  0
LWPOLYLINE
  5
F1
330
1F
100
AcDbEntity
  8
0
  6
Continuous
 62
     7
370
    25
100
AcDbPolyline
 90
       39
 70
   128
 43
0.0
 10
511.9650579195
 20
-451.3923209741
 10
512.0903205789
 20
-445.2434654658
 10
512.4658247969
 20
-438.9639139049
 10
513.0907199356
 20
-432.5678914952
 10
513.9635904066
 20
-426.0698872848
 10
515.0824588775
 20
-419.4846213431
 10
516.4447907514
 20
-412.8270114156
 10
518.0474999084
 20
-406.1121391301
 10
519.8869556967
 20
-399.355215832
 10
521.9589911574
 20
-392.5715481258
 10
524.2589124638
 20
-385.7765032008
 10
526.7815095542
 20
-378.9854740192
 10
529.5210679351
 20
-372.2138444463
 10
532.4713816254
 20
-365.4769544012
 10
535.6257672158
 20
-358.7900651065
 10
538.9770790084
 20
-352.1683245174
 10
542.517725204
 20
-345.6267330059
 10
546.2396851002
 20
-339.1801093808
 10
550.1345272607
 20
-332.8430573182
 10
554.1934286154
 20
-326.6299322791
 10
558.4071944472
 20
-320.5548089901
 10
562.7662792212
 20
-314.6314495595
 10
567.2608082083
 20
-308.8732723014
 10
571.8805998548
 20
-303.2933213394
 10
576.6151888467
 20
-297.9042370572
 10
581.4538498172
 20
-292.718227464
 10
586.3856216429
 20
-287.7470405394
 10
591.3993322744
 20
-283.0019376208
 10
596.4836240445
 20
-278.4936678924
 10
601.6269793971
 20
-274.2324440352
 10
606.817746978
 20
-270.2279190919
 10
612.0441680291
 20
-266.4891645993
 10
617.2944030258
 20
-263.024650039
 10
622.5565584971
 20
-259.8422236506
 10
627.8187139684
 20
-256.9490946536
 10
633.068948965
 20
-254.3518169157
 10
638.2953700162
 20
-252.0562741063
 10
643.4861375971
 20
-250.0676663682
 10
645.2318439824
 20
-249.4652785937
  0
ARC
  5
F2
330
1F
100
AcDbEntity
  8
0
  6
Continuous
 62
     7
370
    25
100
AcDbCircle
 10
636.7139365716
 20
-452.1116106375
 30
0.0
 40
124.7509523112745
100
AcDbArc
 50
179.6696418781
 51
191.1513911954
  0
LWPOLYLINE
  5
F3
330
1F
100
AcDbEntity
  8
0
  6
Continuous
 62
     7
370
    25
100
AcDbPolyline
 90
       36
 70
   128
 43
0.0
 10
529.4808972891
 20
-474.1575438993
 10
529.5667558096
 20
-471.244410713
 10
529.9377701577
 20
-464.6301676818
 10
530.5553088896
 20
-457.8990478887
 10
531.4181459393
 20
-451.0644153491
 10
532.5245682238
 20
-444.1398395931
 10
533.8723790439
 20
-437.1390687251
 10
535.4589024462
 20
-430.0760021274
 10
537.2809885351
 20
-422.9646628651
 10
539.3350197275
 20
-415.8191698441
 10
541.6169179345
 20
-408.6537097792
 10
544.1221526585
 20
-401.4825090282
 10
546.8457499878
 20
-394.3198053463
 10
549.7823024721
 20
-387.1798196188
 10
552.9259798581
 20
-380.0767276264
 10
556.2705406655
 20
-373.0246319007
 10
559.8093445783
 20
-366.037533725
 10
563.535365629
 20
-359.129305336
 10
567.4412061477
 20
-352.3136623817
 10
571.5191114494
 20
-345.6041366903
 10
575.7609852308
 20
-339.0140494041
 10
580.1584056441
 20
-332.5564845312
 10
584.7026420181
 20
-326.244262969
 10
589.384672192
 20
-320.0899170492
 10
594.1952004285
 20
-314.1056656559
 10
599.1246758689
 20
-308.3033899662
 10
604.1633114961
 20
-302.6946098616
 10
609.3011035654
 20
-297.2904610557
 10
614.5278514663
 20
-292.1016729857
 10
619.8331779746
 20
-287.1385475102
 10
625.2065498556
 20
-282.4109384551
 10
630.6372987768
 20
-277.9282320509
 10
636.1146424889
 20
-273.699328296
 10
641.627706233
 20
-269.7326232875
 10
647.1655443314
 20
-266.0359925509
 10
651.0121205266
 20
-263.6364801503
  0
LWPOLYLINE
  5
F4
330
1F
100
AcDbEntity
  8
0
  6
Continuous
 62
     7
370
    25
100
AcDbPolyline
 90
       29
 70
   128
 43
0.0
 10
546.9480453441
 20
-467.9649350723
 10
548.2523188474
 20
-460.8613275505
 10
549.8527032604
 20
-453.364814017
 10
551.6916097124
 20
-445.8143555961
 10
553.765768695
 20
-438.2233767275
 10
556.0714924292
 20
-430.6053738944
 10
558.6046814223
 20
-422.973891628
 10
561.3608317568
 20
-415.3424984252
 10
564.3350430979
 20
-407.7247626246
 10
567.5220274064
 20
-400.1342282825
 10
570.9161183405
 20
-392.5843910919
 10
574.5112813303
 20
-385.0886743879
 10
578.3011243074
 20
-377.6604052812
 10
582.2789090691
 20
-370.3127909632
 10
586.4375632594
 20
-363.0588952241
 10
590.7696929428
 20
-355.9116152257
 10
595.2675957508
 20
-348.883658571
 10
599.9232745765
 20
-341.9875207105
 10
604.7284517927
 20
-335.2354627257
 10
609.6745839697
 20
-328.6394895292
 10
614.752877065
 20
-322.2113285207
 10
619.9543020589
 20
-315.9624087359
 10
625.2696110074
 20
-309.9038405262
 10
630.6893534853
 20
-304.0463958046
 10
636.2038933881
 20
-298.4004888942
 10
641.8034260653
 20
-292.9761580114
 10
647.477995752
 20
-287.7830474185
 10
653.2175132704
 20
-282.8303902768
 10
654.3844480208
 20
-281.8594621382
  0
LINE
  5
F5
330
1F
100
AcDbEntity
  8
0
  6
Continuous
 62
     7
370
    25
100
AcDbLine
 10
-86.3644362966
 20
-416.7578171529
 30
0.0
 11
-86.3644362966
 21
-468.7578171529
 31
0.0
  0
LINE
  5
F6
330
1F
100
AcDbEntity
  8
0
  6
Continuous
 62
     7
370
    25
100
AcDbLine
 10
363.6355637034
 20
-468.7578171529
 30
0.0
 11
363.6355637034
 21
-416.7578171529
 31
0.0
  0
LINE
  5
F7
330
1F
100
AcDbEntity
  8
0
  6
Continuous
 62
     7
370
    25
100
AcDbLine
 10
-86.3644362966
 20
-468.7578171529
 30
0.0
 11
-61.3644362966
 21
-476.1652245603
 31
0.0
  0
LINE
  5
F8
330
1F
100
AcDbEntity
  8
0
  6
Continuous
 62
     7
370
    25
100
AcDbLine
 10
338.6355637034
 20
-476.1652245603
 30
0.0
 11
363.6355637034
 21
-468.7578171529
 31
0.0
  0
LINE
  5
F9
330
1F
100
AcDbEntity
  8
0
  6
Continuous
 62
     7
370
    25
100
AcDbLine
 10
-61.3644362966
 20
-476.1652245603
 30
0.0
 11
-61.3644362966
 21
-512.1652245603
 31
0.0
  0
LINE
  5
FA
330
1F
100
AcDbEntity
  8
0
  6
Continuous
 62
     7
370
    25
100
AcDbLine
 10
338.6355637034
 20
-512.1652245603
 30
0.0
 11
338.6355637034
 21
-476.1652245603
 31
0.0
  0
LINE
  5
FB
330
1F
100
AcDbEntity
  8
0
  6
Continuous
 62
     7
370
    25
100
AcDbLine
 10
-61.3644362966
 20
-512.1652245603
 30
0.0
 11
-38.8644362966
 21
-518.831891227
 31
0.0
  0
LINE
  5
FC
330
1F
100
AcDbEntity
  8
0
  6
Continuous
 62
     7
370
    25
100
AcDbLine
 10
316.1355637034
 20
-518.831891227
 30
0.0
 11
338.6355637034
 21
-512.1652245603
 31
0.0
  0
LINE
  5
FD
330
1F
100
AcDbEntity
  8
0
  6
Continuous
 62
     7
370
    25
100
AcDbLine
 10
-38.8644362966
 20
-518.831891227
 30
0.0
 11
-38.8644362966
 21
-554.831891227
 31
0.0
  0
LINE
  5
FE
330
1F
100
AcDbEntity
  8
0
  6
Continuous
 62
     7
370
    25
100
AcDbLine
 10
316.1355637034
 20
-554.831891227
 30
0.0
 11
316.1355637034
 21
-518.831891227
 31
0.0
  0
LINE
  5
FF
330
1F
100
AcDbEntity
  8
0
  6
Continuous
 62
     7
370
    25
100
AcDbLine
 10
-38.8644362966
 20
-554.831891227
 30
0.0
 11
-18.8644362966
 21
-560.7578171529
 31
0.0
  0
LINE
  5
100
330
1F
100
AcDbEntity
  8
0
  6
Continuous
 62
     7
370
    25
100
AcDbLine
 10
296.1355637034
 20
-560.7578171529
 30
0.0
 11
316.1355637034
 21
-554.831891227
 31
0.0
  0
LINE
  5
101
330
1F
100
AcDbEntity
  8
0
  6
Continuous
 62
     7
370
    25
100
AcDbLine
 10
-18.8644362966
 20
-560.7578171529
 30
0.0
 11
-18.8644362966
 21
-596.7578171529
 31
0.0
  0
LINE
  5
102
330
1F
100
AcDbEntity
  8
0
  6
Continuous
 62
     7
370
    25
100
AcDbLine
 10
296.1355637034
 20
-596.7578171529
 30
0.0
 11
296.1355637034
 21
-560.7578171529
 31
0.0
  0
LINE
  5
103
330
1F
100
AcDbEntity
  8
0
  6
Continuous
 62
     7
370
    25
100
AcDbLine
 10
-86.3644362966
 20
-468.7578171529
 30
0.0
 11
363.6355637034
 21
-468.7578171529
 31
0.0
  0
LINE
  5
104
330
1F
100
AcDbEntity
  8
0
  6
Continuous
 62
     7
370
    25
100
AcDbLine
 10
-86.3644362966
 20
-416.7578171529
 30
0.0
 11
363.6355637034
 21
-416.7578171529
 31
0.0
  0
LINE
  5
105
330
1F
100
AcDbEntity
  8
0
  6
Continuous
 62
     7
370
    25
100
AcDbLine
 10
-61.3644362966
 20
-476.1652245603
 30
0.0
 11
338.6355637034
 21
-476.1652245603
 31
0.0
  0
LINE
  5
106
330
1F
100
AcDbEntity
  8
0
  6
Continuous
 62
     7
370
    25
100
AcDbLine
 10
-61.3644362966
 20
-512.1652245603
 30
0.0
 11
338.6355637034
 21
-512.1652245603
 31
0.0
  0
LINE
  5
107
330
1F
100
AcDbEntity
  8
0
  6
Continuous
 62
     7
370
    25
100
AcDbLine
 10
-38.8644362966
 20
-518.831891227
 30
0.0
 11
316.1355637034
 21
-518.831891227
 31
0.0
  0
LINE
  5
108
330
1F
100
AcDbEntity
  8
0
  6
Continuous
 62
     7
370
    25
100
AcDbLine
 10
-38.8644362966
 20
-554.831891227
 30
0.0
 11
316.1355637034
 21
-554.831891227
 31
0.0
  0
LINE
  5
109
330
1F
100
AcDbEntity
  8
0
  6
Continuous
 62
     7
370
    25
100
AcDbLine
 10
-18.8644362966
 20
-560.7578171529
 30
0.0
 11
296.1355637034
 21
-560.7578171529
 31
0.0
  0
LINE
  5
10A
330
1F
100
AcDbEntity
  8
0
  6
Continuous
 62
     7
370
    25
100
AcDbLine
 10
-18.8644362966
 20
-596.7578171529
 30
0.0
 11
296.1355637034
 21
-596.7578171529
 31
0.0
  0
ENDSEC
  0
SECTION
  2
OBJECTS
  0
DICTIONARY
  5
C
330
0
100
AcDbDictionary
281
     1
  3
ACAD_GROUP
350
D
  3
ACAD_LAYOUT
350
1A
  3
ACAD_MLINESTYLE
350
17
  3
ACAD_PLOTSETTINGS
350
19
  3
ACAD_PLOTSTYLENAME
350
E
  3
ACAD_SCALELIST
350
47
  0
DICTIONARY
  5
D
102
{ACAD_REACTORS
330
C
102
}
330
C
100
AcDbDictionary
281
     1
  0
DICTIONARY
  5
1A
102
{ACAD_REACTORS
330
C
102
}
330
C
100
AcDbDictionary
281
     1
  3
Layout1
350
1E
  3
Layout2
350
26
  3
Model
350
22
  0
DICTIONARY
  5
17
102
{ACAD_REACTORS
330
C
102
}
330
C
100
AcDbDictionary
281
     1
  3
Standard
350
18
  0
DICTIONARY
  5
19
102
{ACAD_REACTORS
330
C
102
}
330
C
100
AcDbDictionary
281
     1
  0
ACDBDICTIONARYWDFLT
  5
E
102
{ACAD_REACTORS
330
C
102
}
330
C
100
AcDbDictionary
281
     1
  3
Normal
350
F
100
AcDbDictionaryWithDefault
340
F
  0
DICTIONARY
  5
47
102
{ACAD_REACTORS
330
C
102
}
330
C
100
AcDbDictionary
281
     1
  3
A0
350
48
  3
A1
350
49
  3
A2
350
4A
  3
A3
350
4B
  3
A4
350
4C
  3
A5
350
4D
  3
A6
350
4E
  3
A7
350
4F
  3
A8
350
50
  3
A9
350
51
  3
B0
350
52
  3
B1
350
53
  3
B2
350
54
  3
B3
350
55
  3
B4
350
56
  3
B5
350
57
  3
B6
350
58
  3
B7
350
59
  3
B8
350
5A
  3
B9
350
5B
  3
C0
350
5C
  3
C1
350
5D
  3
C2
350
5E
  3
C3
350
5F
  3
C4
350
60
  3
C5
350
61
  3
C6
350
62
  3
C7
350
63
  3
C8
350
64
  3
C9
350
65
  3
D0
350
66
  3
D1
350
67
  3
D2
350
68
  0
LAYOUT
  5
1E
102
{ACAD_REACTORS
330
1A
102
}
330
1A
100
AcDbPlotSettings
  1

  2
none_device
  4

  6

 40
0.0
 41
0.0
 42
0.0
 43
0.0
 44
0.0
 45
0.0
 46
0.0
 47
0.0
 48
0.0
 49
0.0
140
0.0
141
0.0
142
1.0
143
1.0
 70
   688
 72
     1
 73
     0
 74
     5
  7

 75
    16
147
1.0
148
0.0
149
0.0
100
AcDbLayout
  1
Layout1
 70
     1
 71
     1
 10
0.0
 20
0.0
 11
420.0
 21
297.0
 12
0.0
 22
0.0
 32
0.0
 14
1.0000000000E+20
 24
1.0000000000E+20
 34
1.0000000000E+20
 15
-1.0000000000E+20
 25
-1.0000000000E+20
 35
-1.0000000000E+20
146
0.0
 13
0.0
 23
0.0
 33
0.0
 16
1.0
 26
0.0
 36
0.0
 17
0.0
 27
1.0
 37
0.0
 76
     0
330
1B
  0
LAYOUT
  5
26
102
{ACAD_REACTORS
330
1A
102
}
330
1A
100
AcDbPlotSettings
  1

  2
none_device
  4

  6

 40
0.0
 41
0.0
 42
0.0
 43
0.0
 44
0.0
 45
0.0
 46
0.0
 47
0.0
 48
0.0
 49
0.0
140
0.0
141
0.0
142
1.0
143
1.0
 70
   688
 72
     1
 73
     0
 74
     5
  7

 75
    16
147
1.0
148
0.0
149
0.0
100
AcDbLayout
  1
Layout2
 70
     1
 71
     2
 10
0.0
 20
0.0
 11
0.0
 21
0.0
 12
0.0
 22
0.0
 32
0.0
 14
0.0
 24
0.0
 34
0.0
 15
0.0
 25
0.0
 35
0.0
146
0.0
 13
0.0
 23
0.0
 33
0.0
 16
1.0
 26
0.0
 36
0.0
 17
0.0
 27
1.0
 37
0.0
 76
     0
330
23
  0
LAYOUT
  5
22
102
{ACAD_REACTORS
330
1A
102
}
330
1A
100
AcDbPlotSettings
  1

  2
none_device
  4
Letter_(8.50_x_11.00_Inches)
  6

 40
6.35
 41
6.35
 42
6.35000508
 43
6.35000508
 44
215.9
 45
279.4
 46
0.0
 47
0.0
 48
0.0
 49
0.0
140
0.0
141
0.0
142
1.0
143
1.0
 70
  1712
 72
     1
 73
     0
 74
     0
  7

 75
     0
147
1.0
148
0.0
149
0.0
100
AcDbLayout
  1
Model
 70
     1
 71
     0
 10
0.0
 20
0.0
 11
279.4
 21
215.9
 12
0.0
 22
0.0
 32
0.0
 14
0.0
 24
0.0
 34
0.0
 15
279.4
 25
215.9
 35
0.0
146
0.0
 13
0.0
 23
0.0
 33
0.0
 16
1.0
 26
0.0
 36
0.0
 17
0.0
 27
1.0
 37
0.0
 76
     0
330
1F
331
29
  0
MLINESTYLE
  5
18
102
{ACAD_REACTORS
330
17
102
}
330
17
100
AcDbMlineStyle
  2
Standard
 70
     0
  3

 62
   256
 51
90.0
 52
90.0
 71
     2
 49
0.5
 62
   256
  6
BYLAYER
 49
-0.5
 62
   256
  6
BYLAYER
  0
ACDBPLACEHOLDER
  5
F
102
{ACAD_REACTORS
330
E
102
}
330
E
  0
SCALE
  5
48
102
{ACAD_REACTORS
330
47
102
}
330
47
100
AcDbScale
 70
     0
300
1:1
140
1.0
141
1.0
290
     1
  0
SCALE
  5
49
102
{ACAD_REACTORS
330
47
102
}
330
47
100
AcDbScale
 70
     0
300
1:2
140
1.0
141
2.0
290
     0
  0
SCALE
  5
4A
102
{ACAD_REACTORS
330
47
102
}
330
47
100
AcDbScale
 70
     0
300
1:4
140
1.0
141
4.0
290
     0
  0
SCALE
  5
4B
102
{ACAD_REACTORS
330
47
102
}
330
47
100
AcDbScale
 70
     0
300
1:5
140
1.0
141
5.0
290
     0
  0
SCALE
  5
4C
102
{ACAD_REACTORS
330
47
102
}
330
47
100
AcDbScale
 70
     0
300
1:8
140
1.0
141
8.0
290
     0
  0
SCALE
  5
4D
102
{ACAD_REACTORS
330
47
102
}
330
47
100
AcDbScale
 70
     0
300
1:10
140
1.0
141
10.0
290
     0
  0
SCALE
  5
4E
102
{ACAD_REACTORS
330
47
102
}
330
47
100
AcDbScale
 70
     0
300
1:16
140
1.0
141
16.0
290
     0
  0
SCALE
  5
4F
102
{ACAD_REACTORS
330
47
102
}
330
47
100
AcDbScale
 70
     0
300
1:20
140
1.0
141
20.0
290
     0
  0
SCALE
  5
50
102
{ACAD_REACTORS
330
47
102
}
330
47
100
AcDbScale
 70
     0
300
1:30
140
1.0
141
30.0
290
     0
  0
SCALE
  5
51
102
{ACAD_REACTORS
330
47
102
}
330
47
100
AcDbScale
 70
     0
300
1:40
140
1.0
141
40.0
290
     0
  0
SCALE
  5
52
102
{ACAD_REACTORS
330
47
102
}
330
47
100
AcDbScale
 70
     0
300
1:50
140
1.0
141
50.0
290
     0
  0
SCALE
  5
53
102
{ACAD_REACTORS
330
47
102
}
330
47
100
AcDbScale
 70
     0
300
1:100
140
1.0
141
100.0
290
     0
  0
SCALE
  5
54
102
{ACAD_REACTORS
330
47
102
}
330
47
100
AcDbScale
 70
     0
300
2:1
140
2.0
141
1.0
290
     0
  0
SCALE
  5
55
102
{ACAD_REACTORS
330
47
102
}
330
47
100
AcDbScale
 70
     0
300
4:1
140
4.0
141
1.0
290
     0
  0
SCALE
  5
56
102
{ACAD_REACTORS
330
47
102
}
330
47
100
AcDbScale
 70
     0
300
8:1
140
8.0
141
1.0
290
     0
  0
SCALE
  5
57
102
{ACAD_REACTORS
330
47
102
}
330
47
100
AcDbScale
 70
     0
300
10:1
140
10.0
141
1.0
290
     0
  0
SCALE
  5
58
102
{ACAD_REACTORS
330
47
102
}
330
47
100
AcDbScale
 70
     0
300
100:1
140
100.0
141
1.0
290
     0
  0
SCALE
  5
59
102
{ACAD_REACTORS
330
47
102
}
330
47
100
AcDbScale
 70
     0
300
1/128" = 1'-0"
140
0.0078125
141
12.0
290
     0
  0
SCALE
  5
5A
102
{ACAD_REACTORS
330
47
102
}
330
47
100
AcDbScale
 70
     0
300
1/64" = 1'-0"
140
0.015625
141
12.0
290
     0
  0
SCALE
  5
5B
102
{ACAD_REACTORS
330
47
102
}
330
47
100
AcDbScale
 70
     0
300
1/32" = 1'-0"
140
0.03125
141
12.0
290
     0
  0
SCALE
  5
5C
102
{ACAD_REACTORS
330
47
102
}
330
47
100
AcDbScale
 70
     0
300
1/16" = 1'-0"
140
0.0625
141
12.0
290
     0
  0
SCALE
  5
5D
102
{ACAD_REACTORS
330
47
102
}
330
47
100
AcDbScale
 70
     0
300
3/32" = 1'-0"
140
0.09375
141
12.0
290
     0
  0
SCALE
  5
5E
102
{ACAD_REACTORS
330
47
102
}
330
47
100
AcDbScale
 70
     0
300
1/8" = 1'-0"
140
0.125
141
12.0
290
     0
  0
SCALE
  5
5F
102
{ACAD_REACTORS
330
47
102
}
330
47
100
AcDbScale
 70
     0
300
3/16" = 1'-0"
140
0.1875
141
12.0
290
     0
  0
SCALE
  5
60
102
{ACAD_REACTORS
330
47
102
}
330
47
100
AcDbScale
 70
     0
300
1/4" = 1'-0"
140
0.25
141
12.0
290
     0
  0
SCALE
  5
61
102
{ACAD_REACTORS
330
47
102
}
330
47
100
AcDbScale
 70
     0
300
3/8" = 1'-0"
140
0.375
141
12.0
290
     0
  0
SCALE
  5
62
102
{ACAD_REACTORS
330
47
102
}
330
47
100
AcDbScale
 70
     0
300
1/2" = 1'-0"
140
0.5
141
12.0
290
     0
  0
SCALE
  5
63
102
{ACAD_REACTORS
330
47
102
}
330
47
100
AcDbScale
 70
     0
300
3/4" = 1'-0"
140
0.75
141
12.0
290
     0
  0
SCALE
  5
64
102
{ACAD_REACTORS
330
47
102
}
330
47
100
AcDbScale
 70
     0
300
1" = 1'-0"
140
1.0
141
12.0
290
     0
  0
SCALE
  5
65
102
{ACAD_REACTORS
330
47
102
}
330
47
100
AcDbScale
 70
     0
300
1-1/2" = 1'-0"
140
1.5
141
12.0
290
     0
  0
SCALE
  5
66
102
{ACAD_REACTORS
330
47
102
}
330
47
100
AcDbScale
 70
     0
300
3" = 1'-0"
140
3.0
141
12.0
290
     0
  0
SCALE
  5
67
102
{ACAD_REACTORS
330
47
102
}
330
47
100
AcDbScale
 70
     0
300
6" = 1'-0"
140
6.0
141
12.0
290
     0
  0
SCALE
  5
68
102
{ACAD_REACTORS
330
47
102
}
330
47
100
AcDbScale
 70
     0
300
1'-0" = 1'-0"
140
12.0
141
12.0
290
     0
  0
ENDSEC
  0
EOF
